Adhemar de Campos

home > Adhemar de Campos

Pela fé Tab

Adhemar de Campos

Difficulty: BeginnerBeginner

by Jonatas%5FBlack

tuner correct add songbook print version text version save to e-mail
chordsukulelecavacokeyboardtabbassdrumsharmonicsflute Guitar Pro
chords

Pela fé

Year: 1997 - Album: Deus Eterno - ao vivo

  		Pela Fé 
Ton: Bm7 

Eaê galera!! esse solo é do cd "Comunhão e Adoração 6" 
vlw! 
Deus abençoe! 

Base:     G            A            Bm7 
E:------------------------|-------------------------------- 
B:-5/7-\5--3-3---3-5/7-5--|--5-3-2-2--3-------------------- 
G:-------------4----------|-------------4------------------ 
D:------------------------|-------------------------------- 
A:------------------------|-------------------------------- 
E:------------------------|-------------------------------- 

          G            A            B9 
E:------------------------|-------------------------------- 
B:-5/7-\5--3-3---3-5/7--5-|--5-3-5/7----------------------- 
G:-------------4----------|-------------------------------- 
D:------------------------|-------------------------------- 
A:------------------------|-------------------------------- 
E:------------------------|-------------------------------- 

          G          A/G            F#m7         Bm7 
E:------------------------|------------10/12-10\9\7-------- 
B:-7-8-10-10-10--5h7h5----|--7-8/10-10--------------------- 
G:------------------------|-------------------------------- 
D:------------------------|-------------------------------- 
A:------------------------|-------------------------------- 
E:------------------------|-------------------------------- 

          G            A             B9 
E:------------------------|------------9------------------- 
B:-5/7-\5--3-3---3-5/7-5--|--5-3-2------------------------- 
G:-------------4----------|--------4----------------------- 
D:------------------------|-------------------------------- 
A:------------------------|-------------------------------- 
E:------------------------|-------------------------------- 
	  

Full key step upFull key step up
Half key step upHalf key step up
Half key step downHalf key step down
Full key step downFull key step down
Search Paypal
auto scroll beats size up size down change color hide chords drawings
tab show chords e-chords YouTube Clip e-chords hide all tabs e-chords go to top tab