Adestria

home > Adestria

1984 Tab

Adestria

Difficulty: ExpertExpert

by joaoewerton

tuner correct add songbook print version text version save to e-mail
chordsukulelecavacokeyboardtabbassdrumsharmonicsflute Guitar Pro
chords

1984

  		

Guitar 1 
D|---------------------------------------------------------------------------| 
A|---------------------------------------------------------------------------| 
F|---------------------------------------------------------------------------| 
C|-000-12-0-12-000-12-0-12-000-12-0-12-000-12-0-12-000-14-0-14-000-14-0-14---| 
G|---------------------------------------------------------------------------| 
C|---------------------------------------------------------------------------| 

D|---------------------------------------------------------------------------| 
A|---------------------------------------------------------------------------| 
F|---------------------------------------------------------------------------| 
C|-000-15-00-14-00-15-17-19---- repeat 2x -----------------------------------| 
G|---------------------------------------------------------------------------| 
C|---------------------------------------------------------------------------| 
Second guitar rings out open on the second time through 

Guitar 1 
D|---------------------------------------------------------------------------| 
A|---------------------------------------------------------------------------| 
F|----14-15-17---14-12---14-15-17---14-12---14-14---14-14---15--14--15-17-19-| 
C|---------------------------------------------------------------------------| 
G|-000--------000--0--000--------000--0--000--0--000--0--000--00--00---------| 
C|-000--------000--0--000--------000--0--000--0--000--0--000--00--00---------| 
   ...        ...  .  ...        ...  .  ...  .  ...  .  ...  ..  .. 

Guitar 2 
D|---------------------------------------------------------------------------| 
A|---------------------------------------------------------------------------| 
F|---------------------------------------------------------------------------| 
C|----15-17-19---15-14---15-17-19---15-14---15-15---15-15---17--15--17-19-20-| 
G|-000--------000--0--000--------000--0--000--0--000--0--000--00--00---------| 
C|-000--------000--0--000--------000--0--000--0--000--0--000--00--00---------| 
   ...        ...  .  ...        ...  .  ...  .  ...  .  ...  ..  .. 

Guitar 1 
D|---------------------------------------------------------------------------| 
A|---------------------------------------------------------------------------| 
F|--14---14-14---14-14-------------------------------------------------------| 
C|----000--0--000--0--0------------------------------------------------------| 
G|---------------------------------------------------------------------------| 
C|---------------------------------------------------------------------------| 

Both guitars 
D|-----------------------------------------------------------------------------| 
A|-----------------------------------------------------------------------------| 
F|-----------------------------------------------------------------------------| 
C|--------------------------------------------------0--------------------------| 
G|-0000-00-0-00-0-000-0-----6b---4-1st time-6b---4-2nd time-6b----3rd time| 
C|-0000-00-0-00-0-000-0-------0-1---------------0-1--------------0-1*----------| 
   .... .. . .. . ... .       .                 .                . 

D|---------------------------------------------------------------------------| 
A|---------------------------------------------------------------------------| 
F|---------------------------------------------------------------------------| 
C|---------------------------------------------------------------------------| 
G|-000-0-000-0-0-00-0-0-000-0-000-0------------------------------------------| 
C|-000-0-000-0-0-00-0-0-000-0-111-1------------------------------------------| 
   ... . ... . . .. . . ... . ... . 

Verse: Both guitars 
D|---------------------------------------------------------------------------| 
A|---------------------------------------------------------------------------| 
F|---------------------------------------------------------------------------| 
C|----------------------------------------------------0-0-5-----x2-----------| 
G|-000-0-000-0-00-000-------------000-000-0-00-000---/5-4--------------------| 
C|-000-0-000-0-00-000-3/5-7-8-7*--000-000-0-00-111---------------------------| 
   ... . ... . .. ...             ... ... . .. ... 

Both guitars 
D|---------------------------------------------------------------------------| 
A|---------------------------------------------------------------------------| 
F|---------------------------------------------------------------------------| 
C|-------7---------------7---------------7-8-7--------------3-2-0------------| 
G|----5-8-8-7-5-------5-8-8-7-5-------5-8-----8-------5--4-------------------| 
C|-000---------000-888---------888-555---------555-111-11-11-----------------| 
                                                       .. .. 
Guitar 1 
D|---------------------------------------------------------------------------| 
A|---------------------------------------------------------------------------| 
F|-10-10-10-9-9-9-14-14-14---------------------------------------------------| 
C|---------------------------------------------------------------------------| 
G|-8--8--8--7-7-7-12-12-12---------------------------------------------------| 
C|---------------------------------------------------------------------------| 

Guitar 2 
D|---------------------------------------------------------------------------| 
A|---------------------------------------------------------------------------| 
F|--7-7-7-5-5-5-10-10-10-----------------------------------------------------| 
C|---------------------------------------------------------------------------| 
G|--5-5-5-3-3-3-8--8--8------------------------------------------------------| 
C|---------------------------------------------------------------------------| 

Chorus both guitars 
D|---------------------------------------------------------------------------| 
A|---------------------------------------------------------------------------| 
F|---------------------------------------------------------------------------| 
C|-000-0~-000-555-5~-555-101010-888-8~-888-555-5-555-5-----------------------| 
G|-000-0~-000-555-5~-555-8-8-8--888-8~-888-555-5-555-5---x2------------------| 
C|-000-0~-000-555-5~-555-7-7-7--888-8~-888-555-5-555-5-----------------------| 


Guitar 1: Chorus part 2 
D|---------------------------------------------------------------------------| 
A|---------------------------------------------------------------------------| 
F|---------------------------------------------------------------------------| 
C|-000-15-00-14-00-15-000-------15----14----15-------------15----14----------| 
G|------------------------101010--1010--1010--101010-131313--1313--1313------| 
C|---------------------------------------------------------------------------| 

D|---------------------------------------------------------------------------| 
A|---------------------------------------------------------------------------| 
F|---------15-14-0-12-00-14-00-10-9------------------------------------------| 
C|-14-15-17------------------------12--------x2------------------------------| 
G|---------------------------------------------------------------------------| 
C|---------------------------------------------------------------------------| 


Repeat verse x2 


Breakdown 
D|---------------------------------------------------------------------------| 
A|---------------------------------------------------------------------------| 
F|---------------------------------------------------------------------------| 
C|------------------------------------------------x2--0~---------------------| 
G|-0-0--0-0--0--0-0--5-7-8-0-----0-0-0--0-0-0---------0~---------------------| 
C|-1-1--1-1--1--1-1--5-7-8-1-----1-1-1--1-1-1---------0~---------------------| 
   . .  . .     . .              . . .    . . 

Repeat Chorus 

Guitar 2: Outro 
D|---------------------------------------------------------------------------| 
A|---------------------------------------------------------------------------| 
F|---------------------------------------------------------------------------| 
C|-0-----8-----3-----10------------------------------------------------------| 
G|-0-----8-----3-----10------------------------------------------------------| 
C|-0-----8-----3-----10------------------------------------------------------| 

Guitar 1: Outro 
D|17-13--------------------13-17-13--13-17-13--------------------13-17-13-17/| 
A|-----15----------------15--------15--------15----------------15--------15--| 
F|-------14------------14----------------------14------------14--------------| 
C|---------15--------15--------------------------15--------15----------------| 
G|-----------17-12-17------------------------------17-12-17------------------| 
C|---------------------------------------------------------------------------| 

D|18-13--------------------13-18-13--13-18-13--------------------13-18-13-18/| 
A|-----15----------------15--------15--------15----------------15--------15--| 
F|-------15------------15----------------------15------------15--------------| 
C|---------15--------15--------------------------15--------15----------------| 
G|-----------17-12-17------------------------------17-12-17------------------| 
C|---------------------------------------------------------------------------| 

D|20-17--------------------17-20-17--17-20-17--------------------17-20-17-20\| 
A|-----18----------------18--------18--------18----------------18--------18--| 
F|-------17------------17----------------------17------------17--------------| 
C|---------19--------19--------------------------19--------19----------------| 
G|-----------20-17-20------------------------------20-17-20------------------| 
C|---------------------------------------------------------------------------| 

D|15-12--------------------12-15-12--12-15-12--------------------12-15-12-15-13~| 
A|-----13----------------13--------13--------13----------------13--------13-----| 
F|-------12------------12----------------------12------------12-----------------| 
C|---------14--------14--------------------------14--------14-------------------| 
G|-----------15-10-15------------------------------15-10-15---------------------| 
C|------------------------------------------------------------------------------|  
	  

Search Paypal
auto scroll beats size up size down change color hide chords drawings
tab show chords e-chords YouTube Clip e-chords hide all tabs e-chords go to top tab