Adelitas Way

The Collapse

Adelitas Way

tabs

by  JESSGOMES

save to print version add songbook text version e-mail correct tuner
chordsukulelecavacokeyboardtabbassdrumsharmonicaflute Guitar Pro
close

there isn't a video lesson for this song

chords

The Collapse

	  		
Tuning:C G C F A D 

 

INTRO: 
GUITAR 1 
|---2-6-2---1-6-7-------2-6-2---1-6-7----2-6-2---1-6-7----------------------| 
|--4-4-4-4-4-4-4-4-----4-4-4-4-4-4-4----4-4-4-4-4-4-4-4-4-------------------| 
|---------------------------------------------------------------------------| 
|---------------------------------------------------------------------------| 
|---------------------------------------------------------------------------| 
|---------------------------------------------------------------------------| 

GUITAR 2 
|---------------------------------------------------------------------------| 
|---------------------------------------------------------------------------| 
|---------------------------------------------------------------------------| 
|---------------------------------------------------------------------------| 
|------2-1----4-3--1-1-----2----4---------2-1----4-3--1-1-----2-------------| 
|-1------------------------------4-1-1-1-----------------------------1-1-1--| 
Verse: 
GUITAR 1 
|---------------------------------------------------------------------------| 
|---------------------------------------------------------------------------| 
|---------------------------------------------------------------------------| 
|-------1-2------1-4------1-2-----------------------------------------------| 
|---------------------------------------------------------------------------| 
|-1-1-1----1-1-1-----1-1-1---4-1-1-6/7-7-7-7--------------------------------| 

Guitar 2 
|---------------------------------------------------------------------------| 
|-------4-5------4-7------4-5-----------------------------------------------| 
|---------------------------------------------------------------------------| 
|---------------------------------------------------------------------------| 
|---------------------------------------------------------------------------| 
|---------------------------------------------------------------------------| 

Pre Chours: 
|-4-2-1-2-----------------------------------------------------------------------| 
|-6-4-2-2-----------------------------------------------------------------------| 
|-6-4-3-3-----------------------------------------------------------------------| 
|-6-4-3-4-----------------------------------------------------------------------| 
|-4-2-1-4-----------------------------------------------------------------------| 
|-4-2-1-2-----------------------------------------------------------------------|(repeat  
each chord 3 times) 


o break, i want it to burn    I want it to burn, i want it to burn 

Chours: 
|-6-------------------6-------------------------------------------------------| 
|-7-------------------7-------------------------------------------------------| 
|-8-------------------8-------------------------------------------------------| 
|-8-------------------8-------------------------------------------------------| 
|-6-6-8-9-1-6-9-4-8-9-6-6-8-9-1-8-9-4-8-9-------------------------------------| 
|-6-------------------6-------------------------------------------------------| 



end: 
GUITAR 1 
|---------------------------------------------------------------------------| 
|---------------------------------------------------------------------------| 
|---------------------------------------------------------------------------| 
|-------1-2------1-4------1-2-----------------------------------------------| 
|---------------------------------------------------------------------------| 
|-1-1-1----1-1-1-----1-1-1---4-1-1-6/7-7-7-7--------------------------------| 

Guitar 2 
e|--------------------------------------------------------------------------| 
|-------4-5------4-7------4-5-----------------------------------------------| 
|---------------------------------------------------------------------------| 
|---------------------------------------------------------------------------| 
|---------------------------------------------------------------------------| 
|---------------------------------------------------------------------------| 
 
		  

See also:

tabs Guns N' Roses - Since I Don't Have You tabs The Offspring - The Kids Aren't Alright tabs Foo Fighters - Everlong Acoustic tabs Simon & Garfunkel - Sounds of silence tabs The Doors - Roadhouse Blues tabs The Doors - People Are Strange
e-chords

Other versions:

tabs Adelitas Way - The Collapse
auto scroll beats size up size down change color hide chords drawings
tab show chords e-chords YouTube Clip e-chords hide all tabs e-chords go to top tab

share