Adele

home > Adele

That's It, I Quit, I'm Moving On Tab

Adele

Difficulty: ExpertExpert

by IronPower4Ever

tuner correct add songbook print version text version save to e-mail
chordsukulelecavacokeyboardtabbassdrumsharmonicsflute Guitar Pro
chords

That's It, I Quit, I'm Moving On

  		


INTRO: 

   G    C     
E|-3-3--3-3~--3-3----|| 
B|-3-3--5-3~--3-3----|| Repeat 3 times 
G|-4-4--5-3~--3-3h5p3||  & end on a  
D|-5-5--5-3~--3-3----||  the G chord 
A|-5-5--3-3~--3-3----|| 
E|-3-3--3-3~--3-3----|| 


VERSE 1: 
    
E|-3-3--3-3~--3-3----|| 
B|-3-3--5-3~--3-3----||  Repeat 4 times, 
G|-4-4--5-3~--3-3h5p3|| then play (below) 
D|-5-5--5-3~--3-3----||   
A|-5-5--3-3~--3-3----|| 
E|-3-3--3-3~--3-3----|| 



PRE-CHORUS: 

     work the strumming out 
      whilst playing along 

E|--------5-5-5---5~--3-3-3-3~--3-3-----3-3-3-3~--3-3----| 
B|--------6-6-6---6~--3-3-5-3~--3-3-----3-3-5-3~--3-3----| 
G|--------7-7-7---7~--4-4-5-3~--3-3h5p3-4-4-5-3~--3-3-5-3| 
D|-5-3-3~-7-7-5h7-7~--5-5-5-3~--3-3-----5-5-5-3~--3-3----| 
A|----5---5-5-5---5~--5-5-3-3~--3-3-----5-5-3-3~--3-3----| 
E|--------5-5-5---5~--3-3-3-3~--3-3-----3-3-3-3~--3-3----| 
  ^^^^^^ 
 palm mute 

CHORUS: 

E|--5-5--3-3----3-3-3-3-3-3--9~-9-|| 
B|--6-6--5-5----3-3-5-5-3-3--9~-9-|| 
G|--7-7--5-5----4-4-5-5-4-4--9~-9-|| 
D|--7-7--5-5----5-5-5-5-5-5--X--X-|| 
A|--5-5--3-3----5-5-3-3-5-5--X--X-|| 
E|--5-5--3-3----3-3-3-3-3-3--X--X-|| 

E|--------------------------------|   
B|--------------------------------|     
G|--------------------------------|      
D|-------------5-3-------3--5-3-5-|  
A|-----------------5-3--5---------|   
E|--------------------------------|     


VERSE 2: 
         
E|-3-3--3-3~--3-3----||   
B|-3-3--5-3~--3-3----||   
G|-4-4--5-3~--3-3h5p3|| (4x) 
D|-5-5--5-3~--3-3----||   
A|-5-5--3-3~--3-3----||   
E|-3-3--3-3~--3-3----||   



PRE-CHORUS: 

E|--------5-5-5---5~--3-3-3-3~--3-3-----3-3-3-3~--3-3----| 
B|--------6-6-6---6~--3-3-5-3~--3-3-----3-3-5-3~--3-3----| 
G|--------7-7-7---7~--4-4-5-3~--3-3h5p3-4-4-5-3~--3-3-5-3| 
D|-5-3-3~-7-7-5h7-7~--5-5-5-3~--3-3-----5-5-5-3~--3-3----| 
A|----5---5-5-5---5~--5-5-3-3~--3-3-----5-5-3-3~--3-3----| 
E|--------5-5-5---5~--3-3-3-3~--3-3-----3-3-3-3~--3-3----| 
  ^^^^^^ 
 palm mute 


CHORUS: 

E|--5-5--3-3----3-3-3-3-3-3--9~-9-|| 
B|--6-6--5-5----3-3-5-5-3-3--9~-9-|| 
G|--7-7--5-5----4-4-5-5-4-4--9~-9-|| 
D|--7-7--5-5----5-5-5-5-5-5--X--X-|| 
A|--5-5--3-3----5-5-3-3-5-5--X--X-|| 
E|--5-5--3-3----3-3-3-3-3-3--X--X-|| 


BRIDGE: 

 (palm mute) 

E|-5-5-5-5-5---5-5---5-5-5--9-9-8-9-| 
B|-6-6-6-6-6---6-6---6-6-6--9-9-8-9-| 
G|-7-7-7-7-5h7-7-5h7-7-7-7--9-9-8-9-| 
D|-7-7-7-7-5h7-7-5h7-7-7-7--X-X-X-X-| 
A|-5-5-5-5-5---5-5---5-5-5--X-X-X-X-| 
E|-5-5-5-5-5---5-5---5-5-5--X-X-X-X-| 

E|-5-5-5-5-5---5-5---5-5-5\---------| 
B|-6-6-6-6-6---6-6---6-6-6\---------| 
G|-7-7-7-7-5h7-7-5h7-7-7-7\---------| 
D|-7-7-7-7-5h7-7-5h7-7-7-7\---------| 
A|-5-5-5-5-5---5-5---5-5-5\---------| 
E|-5-5-5-5-5---5-5---5-5-5\---------| 

E|-----------------------5----------| 
B|---------------5h7p5-5-6----------|  
G|------7p6p5--7-5-------7----------|    
D|-5h6h7------7----------7----------| 
A|-----------------------5----------| 
E|-----------------------5----------| 


VERSE 3: 
         
E|-3-3--3-3~--3-3----||   
B|-3-3--5-3~--3-3----||   
G|-4-4--5-3~--3-3h5p3|| (4x) 
D|-5-5--5-3~--3-3----||   
A|-5-5--3-3~--3-3----||   
E|-3-3--3-3~--3-3----||   



PRE-CHORUS: 

E|--------5-5-5---5~--3-3-3-3~--3-3-----3-3-3-3~--3-3----| 
B|--------6-6-6---6~--3-3-5-3~--3-3-----3-3-5-3~--3-3----| 
G|--------7-7-7---7~--4-4-5-3~--3-3h5p3-4-4-5-3~--3-3-5-3| 
D|-5-3-3~-7-7-5h7-7~--5-5-5-3~--3-3-----5-5-5-3~--3-3----| 
A|----5---5-5-5---5~--5-5-3-3~--3-3-----5-5-3-3~--3-3----| 
E|--------5-5-5---5~--3-3-3-3~--3-3-----3-3-3-3~--3-3----| 
  ^^^^^^ 
 palm mute 


CHORUS: 

E|--5-5--3-3----3-3-3-3-3-3--9~-9-| 
B|--6-6--5-5----3-3-5-5-3-3--9~-9-| 
G|--7-7--5-5----4-4-5-5-4-4--9~-9-| 
D|--7-7--5-5----5-5-5-5-5-5--X--X-| 
A|--5-5--3-3----5-5-3-3-5-5--X--X-| 
E|--5-5--3-3----3-3-3-3-3-3--X--X-| 



BRIDGE: 

 (palm mute) 

E|-5-5-5-5-5---5-5---5-5-5--9-9-8-9-| 
B|-6-6-6-6-6---6-6---6-6-6--9-9-8-9-| 
G|-7-7-7-7-5h7-7-5h7-7-7-7--9-9-8-9-| 
D|-7-7-7-7-5h7-7-5h7-7-7-7--X-X-X-X-| 
A|-5-5-5-5-5---5-5---5-5-5--X-X-X-X-| 
E|-5-5-5-5-5---5-5---5-5-5--X-X-X-X-| 

E|-5-5-5-5-5---5-5---5-5-5\---------| 
B|-6-6-6-6-6---6-6---6-6-6\---------| 
G|-7-7-7-7-5h7-7-5h7-7-7-7\---------| 
D|-7-7-7-7-5h7-7-5h7-7-7-7\---------| 
A|-5-5-5-5-5---5-5---5-5-5\---------| 
E|-5-5-5-5-5---5-5---5-5-5\---------| 

E|-------------------------55555~---| 
B|-------------------------66666~---| 
G|-------------------------77777~---| 
D|-------------------------77777~---| 
A|-------------------------55555~---| 
E|-------------------------55555~---| 


VERSE 3: 
         
E|-3-3--3-3~--3-3----||   
B|-3-3--5-3~--3-3----||   
G|-4-4--5-3~--3-3h5p3|| (4x) 
D|-5-5--5-3~--3-3----||   
A|-5-5--3-3~--3-3----||   
E|-3-3--3-3~--3-3----||   



PRE-CHORUS: 

E|--------5-5-5---5---5~--3-3-3-3~--3-3-----3-3-3-3~--3-3----| 
B|--------6-6-6---6---6~--3-3-5-3~--3-3-----3-3-5-3~--3-3----| 
G|--------7-7-5h7-5h7-7~--4-4-5-3~--3-3h5p3-4-4-5-3~--3-3-5-3| 
D|-5-3-3~-7-7-5h7-5h7-7~--5-5-5-3~--3-3-----5-5-5-3~--3-3----| 
A|----5---5-5-5---5---5~--5-5-3-3~--3-3-----5-5-3-3~--3-3----| 
E|--------5-5-5---5---5~--3-3-3-3~--3-3-----3-3-3-3~--3-3----| 
  ^^^^^^ 
 palm mute 


CHORUS: 

E|--5-5--3-3----3-3-3-3-3-3--------|| 
B|--6-6--5-5----3-3-5-5-3-3--------|| 
G|--7-7--5-5----4-4-5-5-4-4--------|| (2x) 
D|--7-7--5-5----5-5-5-5-5-5--------|| 
A|--5-5--3-3----5-5-3-3-5-5--------|| 
E|--5-5--3-3----3-3-3-3-3-3--------|| 

E|-----------------------------5--X-| 
B|-----------------------------6--X-|  
G|-----------------------------7--X-|   
D|-----------------------------7--X-|   
A|------------3-2---------3~---5--X-|         
E|---------------5-3-1-2-3-----5--X-|     
 
	  

Full key step upFull key step up
Half key step upHalf key step up
Half key step downHalf key step down
Full key step downFull key step down
Search Paypal
auto scroll beats size up size down change color hide chords drawings
tab show chords e-chords YouTube Clip e-chords hide all tabs e-chords go to top tab