Adam Walicki

Romans

Adam Walicki

tabs Easy easy

by  PAULANTUNES

save to print version add songbook text version e-mail correct tuner
chordsukulelecavacokeyboardtabbassdrumsharmonicaflute Guitar Pro
close

there isn't a video lesson for this song

chords

Romans

	  		From the movie: Sala Sambobˇjcˇw - a Polish movie (though I'm not Polish.) 

|--0------0----------|--1------1--0-------|----------------|--0-----0-------| 
|--1---------3---1---|--3-------------3---|--0--0--1--3----|--1-----1-------| 
|--------------------|-----2--------------|--1--1--2--4----|--------2-------| 
|-----2--------------|--0-----------------|----------------|-----2-----2----| 
|--0-----------------|--------------------|-----2----------|--0-------------| 
|--------------------|--------------------|--0-------------|----------------| 


|--0------0------0---|--3------1---5------|--3-------------1--|--0-----0------| 
|--1---------3-------|--3------3----------|---------3--3------|--1-----1------| 
|--------------------|------2-------------|-------------------|--------0------| 
|-----2--------------|--0-----------------|-------------------|-----2-----2---| 
|--0-----------------|--------------------|-----2-------------|--3------------| 
|--------------------|--------------------|--3----------------|---------------| 


|-----8--5--8----|--7-------------|--6-----6--5--9--|--12------10------| 
|----------------|----------------|-----------------|------------------| 
|-----5-----5----|--------7-------|-----------6--9--|--12--12--10--10--| 
|--------7-------|-----6-----6----|--------5--------|---0--------------| 
|--0-------------|----------------|--0--------------|------------------| 
|----------------|--0-------------|-----------------|------------------| 


|--12------12------|-----10-8--7----|--7-----5------|--------3----1--| 
|----------13------|----------------|---------------|----------------| 
|------14------14--|-----10-9--7----|-----5-----5---|-----2----------| 
|------------------|----------------|--3-----3------|--0-------------| 
|---0--------------|----------------|---------------|----------------| 
|------------------|-0--------------|---------------|----------------| 


                                                    1.2.............. 3.......... 
|--0-----0-------|----------------|----------------|----------------||-----------| 
|--1-----1-------|-----3--1--0----|----------------|--0--0--1--3----||-----------| 
|----------------|----------------|----------------|--1--1--2--4----||-----------| 
|-----2-----2----|----------------|-----2----------|----------------||-----------| 
|--0-------------|----------------|--0-----3--0----|----------------||--0--------| 
|----------------|--0-------------|----------------|--0-------------||-----------|  
		  

See also:

tabs Ira! - Envelhešo Na Cidade(Solo - Acustivo Mtv) tabs Deep Purple - No No No tabs Deep Purple - Black Night tabs Deep Purple - Smoke on the water(ver. 2) tabs Deep Purple - Since Youve Been Gone tabs Albert Hammond Jr - In My Room
e-chords

Other versions:

tabs John Coffey - Romans tabs Adam Walicki - Romans
auto scroll beats size up size down change color hide chords drawings
tab show chords e-chords YouTube Clip e-chords hide all tabs e-chords go to top tab

share