Abel Velazquez

El Héroe

Abel Velazquez

tabs

by  GIANOLIVEIRA

save to print version add songbook text version e-mail correct tuner
chordsukulelecavacokeyboardtabbassdrumsharmonicaflute Guitar Pro
close

there isn't a video lesson for this song

chords

El Héroe

(Abel Velázquéz)

	  		Hola esta es mi primera trancripcion espero les guste 

El héroe 

"p" Pull off 
"s" Slide 
"h" Hamer 
"v" Vibrato 
"b" Bend 

Este es el solo del principio disfrutenlo 

3------------------------------------------------------- 
2---7h9------------------------------------------------- 
1-------7v--14v-14v-14v -12v-12v-12v-11v-11v-11s9------- 

3-------------------------------------------------------- 
2--12p11-12p11-9----12p11-9p7-5s7----5-4-2--------------- 
1-------------------------------------------------------- 

Esta parte es genial, hace unos apagados en el traste TRECE 
que los marco con una x (ya saben, en el traste 13) 

Nota: las notas que se repiten son G# las pongo en distinta 
cuerda por que es distinto el sonido que dan 
4----------------------------x---------------------------- 
3-----------------------------x--------------------------- 
2------------------------------x------11-9b10--7-9-------- 
1---14-14-14p11--14s16--14------13-11---------------4----- 

3--------------------------------------------------------- 
2--9h7-7-7-7p5-5-5-5--4----2s4---------------------------- 
1-------------------------------7------------------------- 


Pues es todo, chequen los tiempos y les garantizo un buen 
resultado, mi correo es [email protected] por si gustan 
pedirme alguna otra rolita se las puedo mandar.
		  

Full key step upFull key step up
Half key step upHalf key step up
Half key step downHalf key step down
Full key step downFull key step down
hide glossary

See also:

tabs Colchon - Quisiera tabs Andrés Valdivia - Vulgar tabs Alexis y fido - Donde Estes Llegare tabs Antiestatika - La Respuesta Es Siempre No tabs Abel Velazquez - El Héroe tabs Julio Jaramillo - Cuandso Llora Mi Guitarra
e-chords

Other versions:

tabs Abel Velazquez - El Héroe
auto scroll beats size up size down change color hide chords drawings
tab show chords e-chords YouTube Clip e-chords hide all tabs e-chords go to top tab

share