ABBA

Fernando Tab

ABBA

Difficulty: nolevelnolevel

by renejunior

tuner correct add songbook print version text version save to e-mail
chordsukuleleukulelecavacokeyboardtabbassdrumsharmonicsflute Guitar Pro
close

there isn't a video lesson for this song

request
chords

Fernando

Year: 1986 - Album: ABBA - Gold: Greatest Hits

  		
Gtr I (E A D G B E) - 'Björn Ulvaeus - Acoustic Guitar' 
Gtr II (E A D G B E) - 'Lasse Wellander - Acoustic Guitar' 
Gtr III (E A D G B E) - 'Janne Schaffer - Electric Guitar' 
Gtr IV (E A D G B E) - 'Benny Andersson - Recorder' 


 Intro (Fade In) 
  Q=104 
  A 
 4/4 
  Gtr I (Ac. Gtr.) 
   TP                     TP 
   W                     +W 
|--0-------------------|-(0)---------------| 
|--2-------------------|-(2)---------------| 
|--2-------------------|-(2)---------------| 
|--2-------------------|-(2)---------------| 
|--0-------------------|-(0)---------------| 
|----------------------|-------------------| 
| 
| Gtr IV (Recorder arr. for Gtr.) 
|  H.       S  S  S  S    H      Q   a  Q 
|----------------------|-------------------| 
|-14-------12-14-12-10-|-------------------| 
|-14-------11-13-11--9-|-11---------11h14--| 
|----------------------|-11-----14---------| 
|----------------------|-------------------| 
|----------------------|-------------------| 


   TP                TP                      TP 
  +W                +W                      +H.      Q 
|-(0)-------------|-(0)-------------------|-(0)------0----| 
|-(2)-------------|-(2)-------------------|-(2)------2----| 
|-(2)-------------|-(2)-------------------|-(2)------2----| 
|-(2)-------------|-(2)-------------------|-(2)------2----| 
|-(0)-------------|-(0)-------------------|-(0)------0----| 
|-----------------|-----------------------|---------------| 
| 
|  Q   Q   Q   Q     H     Q   S  S  S  S    H.      Q 
|-----------------|-----------14h16p14p12-|---------------| 
|-----------------|-14--------15h17p15p14-|-14------------| 
|-11------11--14--|-14--------------------|-14------------| 
|-----------------|-----------------------|---------------| 
|-----------------|-----------------------|---------------| 
|-----------------|-----------------------|---------------| 


  D          E  D/F#                      E/GA 
   H     E E  E  E    +E  E Q       Q      E  E 
|--2-----2-2--0----|--------------------------0-| 
|--3-----3-3--0--3-|--(3)-----------3------5--2-| 
|--2-----2-2--1--2-|--(2)-----------2------4--2-| 
|--0-----0-0--2--0-|--(0)-----------0------2--2-| 
|-------------2----|--------------------------0-| 
|-------------0--2-|--(2)-3-2-------2------4----| 
| 
|  H.         E  E    +Q.     E  a  S  E.  E  E 
|-14---------14-17-|-(17)-------16h17-16--12----| 
|-15---------15-19-|-(19)-------17h19-17--12-14-| 
|------------------|-------------------------13-| 
|------------------|----------------------------| 
|------------------|----------------------------| 
|------------------|----------------------------| 


    E   E  E E   S  S S S  E     E 
|---0------0-----0--0-0-0--0----------| 
|---2------2-----2--2-2-2--2----------| 
|---2------2-----2--2-2-2--2----------| 
|---2------2-----2--2-2-2--2----------| 
|---0------0-----0--0-0-0--0----------| 
|-------------------------------------| 
| 
|  +E   Q.      +E    E    S  S  S  S 
|------12------(12)-------14h16p14p12-| 
|-(14)-12------(12)-------15h17p15p14-| 
|-(13)--------------------------------| 
|-------------------------------------| 
|-------------------------------------| 
|-------------------------------------| 


   E E E E   S  S S S  E     E 
|--0---0-----0--0-0-0--0----------| 
|--2---2-----2--2-2-2--2----------| 
|--2---2-----2--2-2-2--2----------| 
|--2---2-----2--2-2-2--2----------| 
|--0---0-----0--0-0-0--0----------| 
|---------------------------------| 
| 
|  H        +E    E    S  S  S  S 
|---------------------------------| 
|-14-------(14)-------12h14p12p10-| 
|-14-------(14)-------11h13p11p=9-| 
|---------------------------------| 
|---------------------------------| 
|---------------------------------| 


   E E E E   S  S S S  E  E    E  E E E S S S S   E  E 
|--0---0-----0--0-0-0--0----|--0----0---0-0-0-0---0----|| 
|--2---2-----2--2-2-2--2----|--2----2---2-2-2-2---2----|| 
|--2---2-----2--2-2-2--2----|--2----2---2-2-2-2---2----|| 
|--2---2-----2--2-2-2--2----|--2----2---2-2-2-2---2----|| 
|--0---0-----0--0-0-0--0----|--0----0---0-0-0-0---0----|| 
|---------------------------|--------------------------|| 
| 
|  H        +E    E    E  E    H.                +E  E 
|---------------------------|-14----------------(14)---|| 
|---------------------------|--------------------------|| 
|-11-------(11)----------14-|--------------------------|| 
|-11-------(11)-------14----|--------------------------|| 
|---------------------------|--------------------------|| 
|---------------------------|--------------------------|| 


 1st Verse 
  A                                                   E/G# F#m 
                                              TP      TP 
  E E E E S S S S E E   E E E E S S S S E E   H.      Q    W 
|-0---0---0-0-0-0-0---|-0---0---0-0-0-0-0---|-0----------|-2----| 
|-2---2---2-2-2-2-2---|-2---2---2-2-2-2-2---|-2-------5--|-2----| 
|-2---2---2-2-2-2-2---|-2---2---2-2-2-2-2---|-2-------4--|-2----| 
|-2---2---2-2-2-2-2---|-2---2---2-2-2-2-2---|-2-------2--|-4----| 
|-0---0---0-0-0-0-0---|-0---0---0-0-0-0-0---|-0----------|-4----| 
|---------------------|---------------------|---------4--|-2----| 


         BmF#m Bm 
                   TP          TP 
  +H     E E E E   W          +W 
|-(2)----2-2-2-2-|-2--------|-(2)----| 
|-(2)----3-2-2-3-|-3--------|-(3)----| 
|-(2)----4-2-2-4-|-4--------|-(4)----| 
|-(4)----4-4-4-4-|-4--------|-(4)----| 
|-(4)----2-4-4-2-|-2--------|-(2)----| 
|-(2)----2-2-2---|----------|--------| 


               E 
                                      2/4 
   TP          TP          TP           TP 
  +W           W          +W           +H 
|-(2)--------|-0--------|-(0)--------|-(0)----| 
|-(3)--------|-0--------|-(0)--------|-(0)----| 
|-(4)--------|-1--------|-(1)--------|-(1)----| 
|-(4)--------|-2--------|-(2)--------|-(2)----| 
|-(2)--------|-2--------|-(2)--------|-(2)----| 
|------------|-0--------|-(0)--------|-(0)----| 


                          2nd & 3rd Verses 
                        $ 
  A                        A 
 4/4 
  TP          TP 
  W          +W             e  e  e  e  e  e  e  e    e   e  e  e  e  e  e  e 
|-0--------|-(0)--------||-12----12----12----12----|-12-----12----12----12----| 
|-2--------|-(2)--------||-14-14-14-14-14-14-14-14-|-14--14-14-14-14-14-14-14-| 
|-2--------|-(2)--------||-------------------------|--------------------------| 
|-2--------|-(2)--------||-------------------------|--------------------------| 
|-0--------|-(0)--------||-------------------------|--------------------------| 
|----------|------------||-------------------------|--------------------------| 
| 
| Gtr III (El. Gtr.) 
| W           W             E  E  E  E  E  E  E  E   +E   E  E  E  E  E  E  E 
|----------|------------||-----------5-------------|------------5-------------| 
|----------|------------||--------5-----5-----5----|---------5-----5-----5----| 
|----------|------------||-----6-----------6-----6-|-(6)--6-----------6-----6-| 
|----------|------------||-------------------------|--------------------------| 
|----------|------------||-------------------------|--------------------------| 
|----------|------------||-------------------------|--------------------------| 


                              F#m 
   e   e  e  e  e  e   e  e    e  e  e  e  e  e  e  e 
|-12-----12----12-----12----|-14----14----14----14----| 
|-14--14-14-14-14-14--14-14-|-14-14-14-14-14-14-14-14-| 
|---------------------------|-------------------------| 
|---------------------------|-------------------------| 
|---------------------------|-------------------------| 
|---------------------------|-------------------------| 
| 
| +E   E  E  E  E  Q.          E  E  E  E  E  E  E  E 
|------------5--------------|-----------2-------------| 
|---------5-----5-----------|--------2-----2-----2----| 
|-(6)--6-----------6--------|-----2-----------2-----2-| 
|---------------------------|--4----------------------| 
|---------------------------|-------------------------| 
|---------------------------|-------------------------| 


              Bm/F# F#m     Bm 
   e  e  e  e  e  e  e  e    e   e  e  e  e  e  e  e 
|-14----14----14-14-14-14-|-14-----14----14----14-----| 
|-14-14-14-14-15-15-14-14-|-15--15-15-15-15-15-15-15--| 
|-------------------------|---------------------------| 
|-------------------------|---------------------------| 
|-------------------------|---------------------------| 
|-------------------------|---------------------------| 
| 
|  E  E  E  E  Q     Q       Q.        E  Q     Q 
|-------------------------|---------------------------| 
|--------2-----3-----2----|--3---------3--------------| 
|-----2-------------------|---------------------------| 
|--4--------4-------------|---------------------------| 
|-------------------------|---------------5-----4-----| 
|-------------------------|---------------------------| 


   e  e  e  e  e   e  e  e    e  e  e  e  e  e  e  e 
|-14----14----14-----14----|-14----14----14----14----| 
|-15-15-15-15-15--15-15-15-|-15-15-15-15-15-15-15-15-| 
|--------------------------|-------------------------| 
|--------------------------|-------------------------| 
|--------------------------|-------------------------| 
|--------------------------|-------------------------| 
| 
|  E  E  E  E +E   E  Q       E  E  E  E  E  E  E  E 
|--------------------------|-------------------------| 
|-----------3-(3)----------|-----------3--------3----| 
|--------4------------4----|--------4-----4--------4-| 
|-----4------------4-------|-----4-----------4-------| 
|--2-----------------------|--2----------------------| 
|--------------------------|-------------------------| 


  E 
   e  e  e  e  e   e  e  e    e  e  e  e  e  e  e  e 
|-12----12----12-----12----|-12----12----12----12-----| 
|-12-12-12-12-12--12-12-12-|-12-12-12-12-12-12-12-12--| 
|--------------------------|--------------------------| 
|--------------------------|--------------------------| 
|--------------------------|--------------------------| 
|--------------------------|--------------------------| 
| 
|  E  E  E  E +E   Q     E    E  E  E  E  E  E  E  E 
|--------------------------|--------------------------| 
|-----------9-(9)----------|-----------9--------------| 
|--------9---------7-------|--------9-----9-----9-----| 
|-----9--------------------|-----9-----------9-----9--| 
|--------------------------|--------------------------| 
|--0---------------------7-|--0-----------------------| 


 2/4           4/4 
   e  e  e  e    e  e  e  e  e  e  e  e    e  e  e  e  e  e  e  e 
|-12----12----|-12----12----12----12----|-12----12----12-12-12----|| 
|-12-12-12-12-|-12-12-12-12-12-12-12-12-|-14-14-14-14-15-15-14-14-|| 
|-------------|-------------------------|-------------------------|| 
|-------------|-------------------------|-------------------------|| 
|-------------|-------------------------|-------------------------|| 
|-------------|-------------------------|-------------------------|| 
| 
|  E  E  E  E    E  E  E  E  E  E  E  E    E  E  E  E  E  E  E  E 
|-------------|-----------5-------------|-----------5-------------|| 
|-------------|--------5-----5-----5----|--------5----------------|| 
|--------9----|-----6-----------6-----6-|-----6--------7-----6----|| 
|-----9-----9-|--7----------------------|--7--------------7-----7-|| 
|--7----------|-------------------------|-------------------------|| 
|-------------|-------------------------|-------------------------|| 


 Chorus 
  E7                                                  A 
  E S S E S S S S S S E E   E S S E S S S S S S E E   E S S E S S S S S S E E 
|-0-0-0-0-0-0-0-0-0-0-0-0-|-0-0-0-0-0-0-0-0-0-0-0-0-|-0-0-0-0-0-0-0-0-0-0-0-0-| 
|-3-3-3-3-3-3-3-3-3-3-3-3-|-3-3-3-3-3-3-3-3-3-3-3-3-|-2-2-2-2-2-2-2-2-2-2-2-2-| 
|-1-1-1-1-1-1-1-1-1-1-1-1-|-1-1-1-1-1-1-1-1-1-1-1-1-|-2-2-2-2-2-2-2-2-2-2-2-2-| 
|-2-2-2-2-2-2-2-2-2-2-2-2-|-2-2-2-2-2-2-2-2-2-2-2-2-|-2-2-2-2-2-2-2-2-2-2-2-2-| 
|-2-2-2-2-2-2-2-2-2-2-2-2-|-2-2-2-2-2-2-2-2-2-2-2-2-|-0-0-0-0-0-0-0-0-0-0-0-0-| 
|-0-0-0-0-0-0-0-0-0-0-0-0-|-0-0-0-0-0-0-0-0-0-0-0-0-|-------------------------| 


                            E7 
  E S S E S S S S S S E E   E S S E S S S S S S E E   E S S E S S S S S S E E 
|-0-0-0-0-0-0-0-0-0-0-0-0-|-0-0-0-0-0-0-0-0-0-0-0-0-|-0-0-0-0-0-0-0-0-0-0-0-0-| 
|-2-2-2-2-2-2-2-2-2-2-2-2-|-3-3-3-3-3-3-3-3-3-3-3-3-|-3-3-3-3-3-3-3-3-3-3-3-3-| 
|-2-2-2-2-2-2-2-2-2-2-2-2-|-1-1-1-1-1-1-1-1-1-1-1-1-|-1-1-1-1-1-1-1-1-1-1-1-1-| 
|-2-2-2-2-2-2-2-2-2-2-2-2-|-2-2-2-2-2-2-2-2-2-2-2-2-|-2-2-2-2-2-2-2-2-2-2-2-2-| 
|-0-0-0-0-0-0-0-0-0-0-0-0-|-2-2-2-2-2-2-2-2-2-2-2-2-|-2-2-2-2-2-2-2-2-2-2-2-2-| 
|-------------------------|-0-0-0-0-0-0-0-0-0-0-0-0-|-0-0-0-0-0-0-0-0-0-0-0-0-| 


  A                         A/G                       F# 
  E S S E S S S S S S E E   E S S E S S S S S S E E   E S S E S S S S S S E E 
|-0-0-0-0-0-0-0-0-0-0-0-0-|-0-0-0-0-0-0-0-0-0-0-0-0-|-2-2-2-2-2-2-2-2-2-2-2-2-| 
|-2-2-2-2-2-2-2-2-2-2-2-2-|-2-2-2-2-2-2-2-2-2-2-2-2-|-2-2-2-2-2-2-2-2-2-2-2-2-| 
|-2-2-2-2-2-2-2-2-2-2-2-2-|-2-2-2-2-2-2-2-2-2-2-2-2-|-3-3-3-3-3-3-3-3-3-3-3-3-| 
|-2-2-2-2-2-2-2-2-2-2-2-2-|-2-2-2-2-2-2-2-2-2-2-2-2-|-4-4-4-4-4-4-4-4-4-4-4-4-| 
|-0-0-0-0-0-0-0-0-0-0-0-0-|-------------------------|-4-4-4-4-4-4-4-4-4-4-4-4-| 
|-------------------------|-3-3-3-3-3-3-3-3-3-3-3-3-|-2-2-2-2-2-2-2-2-2-2-2-2-| 


  B                                                   E7 
  E S S E S S S S S S E E   E S S E S S S S S S E E   E S S E S S S S S S E E 
|-------------------------|-------------------------|-0-0-0-0-0-0-0-0-0-0-0-0-| 
|-4-4-4-4-4-4-4-4-4-4-4-4-|-4-4-4-4-4-4-4-4-4-4-4-4-|-3-3-3-3-3-3-3-3-3-3-3-3-| 
|-4-4-4-4-4-4-4-4-4-4-4-4-|-4-4-4-4-4-4-4-4-4-4-4-4-|-1-1-1-1-1-1-1-1-1-1-1-1-| 
|-4-4-4-4-4-4-4-4-4-4-4-4-|-4-4-4-4-4-4-4-4-4-4-4-4-|-2-2-2-2-2-2-2-2-2-2-2-2-| 
|-2-2-2-2-2-2-2-2-2-2-2-2-|-2-2-2-2-2-2-2-2-2-2-2-2-|-2-2-2-2-2-2-2-2-2-2-2-2-| 
|-------------------------|-------------------------|-0-0-0-0-0-0-0-0-0-0-0-0-| 


  E S S E S S S S S S E E 
|-0-0-0-0-0-0-0-0-0-0-0-0-| 
|-3-3-3-3-3-3-3-3-3-3-3-3-| 
|-1-1-1-1-1-1-1-1-1-1-1-1-| 
|-2-2-2-2-2-2-2-2-2-2-2-2-| 
|-2-2-2-2-2-2-2-2-2-2-2-2-| 
|-0-0-0-0-0-0-0-0-0-0-0-0-| 


                   To Coda 
  A                                      Asus4   A 
  E S S E S S S S S S E E    E S S E S S S S S S E E 
|-0-0-0-0-0-0-0-0-0-0-0-0--|-0-0-0-0-0-0-0-0-0-0-0-0--| 
|-2-2-2-2-2-2-2-2-2-2-2-2--|-2-2-2-2-2-2-3-3-3-3-2-2--| 
|-2-2-2-2-2-2-2-2-2-2-2-2--|-2-2-2-2-2-2-2-2-2-2-2-2--| 
|-2-2-2-2-2-2-2-2-2-2-2-2--|-2-2-2-2-2-2-2-2-2-2-2-2--| 
|-0-0-0-0-0-0-0-0-0-0-0-0--|-0-0-0-0-0-0-0-0-0-0-0-0--| 
|--------------------------|--------------------------| 


  E7                                                  D             E D/F# 
  E S S E S S S S S S E E   E S S E S S S S S S E E   E E E E E S S E E 
|-0-0-0-0-0-0-0-0-0-0-0-0-|-0-0-0-0-0-0-0-0-0-0-0-0-|-2-2-2-2-2-2-2-0----| 
|-3-3-3-3-3-3-3-3-3-3-3-3-|-3-3-3-3-3-3-3-3-3-3-3-3-|-3-3-3-3-3-3-3-0-3--| 
|-1-1-1-1-1-1-1-1-1-1-1-1-|-1-1-1-1-1-1-1-1-1-1-1-1-|-2-2-2-2-2-2-2-1-2--| 
|-2-2-2-2-2-2-2-2-2-2-2-2-|-2-2-2-2-2-2-2-2-2-2-2-2-|-0-0-0-0-0-0-0-2-0--| 
|-2-2-2-2-2-2-2-2-2-2-2-2-|-2-2-2-2-2-2-2-2-2-2-2-2-|---------------2----| 
|-0-0-0-0-0-0-0-0-0-0-0-0-|-0-0-0-0-0-0-0-0-0-0-0-0-|---------------0-2--| 


              E/A#                  A/D#A/C# 
                                   2/4 
                                    |-3-| 
  +E  E Q  Q  E E   +E  E H.        Q Q Q 
|---------------0-|-(0)-0-0-------|---2---| 
|-(3)-3-3--3--5-2-|-(2)-2-2-------|-3-3-3-| 
|-(2)-2-2--2--4-2-|-(2)-2-2-------|-2-2-2-| 
|-(0)-0-0--0--2-2-|-(2)-2-2-------|-2-0-2-| 
|---------------0-|-(0)-0-0-------|-4---4-| 
|-(2)-2-2--2--4---|---------------|-------| 
| 
| Gtr II (Ac. Gtr.) 
|                                   |-3-| 
|  W                 W              Q Q Q 
|-----------------|---------------|-5---5-| 
|-----------------|---------------|-5-7-5-| 
|-----------------|---------------|-6-7-6-| 
|-----------------|---------------|-7-7-7-| 
|-----------------|---------------|-7-5-7-| 
|-----------------|---------------|-5---5-| 
| 
| Gtr III 
|                                   |-3-| 
|  W                 W              Q Q Q 
|-----------------|---------------|-------| 
|-----------------|---------------|-2-3-2-| 
|-----------------|---------------|-2-----| 
|-----------------|---------------|-------| 
|-----------------|---------------|-------| 
|-----------------|---------------|-------| 


  ritardando Q=96                     a tempo Q=104 
                                           D.S. al Coda 
  E                                     A 
 4/4 
                                        TP          TP 
  W                 +W                  W          +W 
|-0---------------|-(0)---------------|-0--------|-(0)-----|| 
|-0---------------|-(0)---------------|-2--------|-(2)-----|| 
|-1---------------|-(1)---------------|-2--------|-(2)-----|| 
|-2---------------|-(2)---------------|-2--------|-(2)-----|| 
|-2---------------|-(2)---------------|-0--------|-(0)-----|| 
|-0---------------|-(0)---------------|----------|---------|| 
| 
| Q   E E E E E E    E  E E E E E E E   W           W 
|-----------------|-------------------|----------|---------|| 
|-9--10-9-9-7-7-5-|--5--3-3-2-2-0-0---|----------|---------|| 
|-9--11-9-9-7-7-6-|--6--4-4-2-2-1---2-|----------|---------|| 
|-9---------------|-------------------|----------|---------|| 
|-7---------------|-------------------|----------|---------|| 
|-----------------|-------------------|----------|---------|| 
| 
| W                 +W                  W           W 
|-0---------------|-(0)---------------|----------|---------|| 
|-0---------------|-(0)---------------|----------|---------|| 
|-1---------------|-(1)---------------|----------|---------|| 
|-2---------------|-(2)---------------|----------|---------|| 
|-2---------------|-(2)---------------|----------|---------|| 
|-0---------------|-(0)---------------|----------|---------|| 


                        Chorus 
  & 
  A           AsusA      E7 
  E S S E S S E E E E    E S S E S S S S S S E E   E S S E S S S S S S E E 
|-0-0-0-0-0-0-0-0-0-0-||-0-0-0-0-0-0-0-0-0-0-0-0-|-0-0-0-0-0-0-0-0-0-0-0-0-| 
|-2-2-2-2-2-2-3-3-2-2-||-3-3-3-3-3-3-3-3-3-3-3-3-|-3-3-3-3-3-3-3-3-3-3-3-3-| 
|-2-2-2-2-2-2-2-2-2-2-||-1-1-1-1-1-1-1-1-1-1-1-1-|-1-1-1-1-1-1-1-1-1-1-1-1-| 
|-2-2-2-2-2-2-2-2-2-2-||-2-2-2-2-2-2-2-2-2-2-2-2-|-2-2-2-2-2-2-2-2-2-2-2-2-| 
|-0-0-0-0-0-0-0-0-0-0-||-2-2-2-2-2-2-2-2-2-2-2-2-|-2-2-2-2-2-2-2-2-2-2-2-2-| 
|---------------------||-0-0-0-0-0-0-0-0-0-0-0-0-|-0-0-0-0-0-0-0-0-0-0-0-0-| 


  A                                                   E7 
  E S S E S S S S S S E E   E S S E S S S S S S E E   E S S E S S S S S S E E 
|-0-0-0-0-0-0-0-0-0-0-0-0-|-0-0-0-0-0-0-0-0-0-0-0-0-|-0-0-0-0-0-0-0-0-0-0-0-0-| 
|-2-2-2-2-2-2-2-2-2-2-2-2-|-2-2-2-2-2-2-2-2-2-2-2-2-|-3-3-3-3-3-3-3-3-3-3-3-3-| 
|-2-2-2-2-2-2-2-2-2-2-2-2-|-2-2-2-2-2-2-2-2-2-2-2-2-|-1-1-1-1-1-1-1-1-1-1-1-1-| 
|-2-2-2-2-2-2-2-2-2-2-2-2-|-2-2-2-2-2-2-2-2-2-2-2-2-|-2-2-2-2-2-2-2-2-2-2-2-2-| 
|-0-0-0-0-0-0-0-0-0-0-0-0-|-0-0-0-0-0-0-0-0-0-0-0-0-|-2-2-2-2-2-2-2-2-2-2-2-2-| 
|-------------------------|-------------------------|-0-0-0-0-0-0-0-0-0-0-0-0-| 


                            A                         A/G 
  E S S E S S S S S S E E   E S S E S S S S S S E E   E S S E S S S S S S E E 
|-0-0-0-0-0-0-0-0-0-0-0-0-|-0-0-0-0-0-0-0-0-0-0-0-0-|-0-0-0-0-0-0-0-0-0-0-0-0-| 
|-3-3-3-3-3-3-3-3-3-3-3-3-|-2-2-2-2-2-2-2-2-2-2-2-2-|-2-2-2-2-2-2-2-2-2-2-2-2-| 
|-1-1-1-1-1-1-1-1-1-1-1-1-|-2-2-2-2-2-2-2-2-2-2-2-2-|-2-2-2-2-2-2-2-2-2-2-2-2-| 
|-2-2-2-2-2-2-2-2-2-2-2-2-|-2-2-2-2-2-2-2-2-2-2-2-2-|-2-2-2-2-2-2-2-2-2-2-2-2-| 
|-2-2-2-2-2-2-2-2-2-2-2-2-|-0-0-0-0-0-0-0-0-0-0-0-0-|-------------------------| 
|-0-0-0-0-0-0-0-0-0-0-0-0-|-------------------------|-3-3-3-3-3-3-3-3-3-3-3-3-| 


  F#                        B 
  E S S E S S S S S S E E   E S S E S S S S S S E E   E S S E S S S S S S E E 
|-2-2-2-2-2-2-2-2-2-2-2-2-|-------------------------|-------------------------| 
|-2-2-2-2-2-2-2-2-2-2-2-2-|-4-4-4-4-4-4-4-4-4-4-4-4-|-4-4-4-4-4-4-4-4-4-4-4-4-| 
|-3-3-3-3-3-3-3-3-3-3-3-3-|-4-4-4-4-4-4-4-4-4-4-4-4-|-4-4-4-4-4-4-4-4-4-4-4-4-| 
|-4-4-4-4-4-4-4-4-4-4-4-4-|-4-4-4-4-4-4-4-4-4-4-4-4-|-4-4-4-4-4-4-4-4-4-4-4-4-| 
|-4-4-4-4-4-4-4-4-4-4-4-4-|-2-2-2-2-2-2-2-2-2-2-2-2-|-2-2-2-2-2-2-2-2-2-2-2-2-| 
|-2-2-2-2-2-2-2-2-2-2-2-2-|-------------------------|-------------------------| 


   Outro 
    E7 
    E S S E S S S S S S E E   E S S E S S S S S S E E 
||--0-0-0-0-0-0-0-0-0-0-0-0-|-0-0-0-0-0-0-0-0-0-0-0-0-| 
||o-3-3-3-3-3-3-3-3-3-3-3-3-|-3-3-3-3-3-3-3-3-3-3-3-3-| 
||--1-1-1-1-1-1-1-1-1-1-1-1-|-1-1-1-1-1-1-1-1-1-1-1-1-| 
||--2-2-2-2-2-2-2-2-2-2-2-2-|-2-2-2-2-2-2-2-2-2-2-2-2-| 
||o-2-2-2-2-2-2-2-2-2-2-2-2-|-2-2-2-2-2-2-2-2-2-2-2-2-| 
||--0-0-0-0-0-0-0-0-0-0-0-0-|-0-0-0-0-0-0-0-0-0-0-0-0-| 


  E S S E S S S S S S E E   E S S E S S S S S S E E  3x 
|-0-0-0-0-0-0-0-0-0-0-0-0-|-0-0-0-0-0-0-0-0-0-0-0-0--|| 
|-2-2-2-2-2-2-2-2-2-2-2-2-|-2-2-2-2-2-2-3-3-3-3-2-2-o|| 
|-2-2-2-2-2-2-2-2-2-2-2-2-|-2-2-2-2-2-2-2-2-2-2-2-2--|| 
|-2-2-2-2-2-2-2-2-2-2-2-2-|-2-2-2-2-2-2-2-2-2-2-2-2--|| 
|-0-0-0-0-0-0-0-0-0-0-0-0-|-0-0-0-0-0-0-0-0-0-0-0-0-o|| 
|-------------------------|--------------------------|| 
 
	  

Full key step upFull key step up
Half key step upHalf key step up
Half key step downHalf key step down
Full key step downFull key step down
Search Paypal
auto scroll beats size up size down change color hide chords drawings
tab show chords e-chords YouTube Clip e-chords hide all tabs e-chords go to top tab

share with facebook