ABBA

home > ABBA

Dancing Queen Tab

ABBA

Difficulty: AdvancedAdvanced

by leoaraga0

tuner correct add songbook print version text version save to e-mail
chordsukulelecavacokeyboardtabbassdrumsharmonicsflute Guitar Pro
chords

Dancing Queen

Year: 1986 - Album: ABBA - Gold: Greatest Hits

(B. Anderson / S. Anderson / B. Ulvaeus)

  		intro (riff) 
 
    A      D          A         D 
e|-----------------------------------------| 
B|-----------------------------------------| 
G|--6----4-7----6-4---4--6-6---------------| 
D|------------------7----------------------| 
A|-----------------------------------------| 
E|-----------------------------------------| 
 
    A      D          A         D 
e|-----------------------------------------| 
B|-----------------------------------------| 
G|--6----4-7----6-4---4--6-6--4---4^6-4----| 
D|------------------7-----------7----------| 
A|-----------------------------------------| 
E|-----------------------------------------| 

	  

Full key step upFull key step up
Half key step upHalf key step up
Half key step downHalf key step down
Full key step downFull key step down
Search Paypal
auto scroll beats size up size down change color hide chords drawings
tab show chords e-chords YouTube Clip e-chords hide all tabs e-chords go to top tab