ABBA

Chiquitita Tab

ABBA

Difficulty: BeginnerBeginner

by Rafaelhvp

tuner correct add songbook print version text version save to e-mail
chordsukuleleukulelecavacokeyboardtabbassdrumsharmonicsflute Guitar Pro
close

there isn't a video lesson for this song

request
chords

Chiquitita

Year: 1986 - Album: ABBA - Gold: Greatest Hits

  		Essa é a introdução da música. 

e---------------------------------------------------------------------------------------- 
b---2--3--5--7-9---10---12------10---9--7/9--10----7---5--0/2----3--3------ 
g--------------------------------------------------------------------------------------- 
d---2--4--6--7-9---11---12------11---9--7/9--11----7---6---0/2---4--4----- 
a-------------------------------------------------------------------------------------- 
E------------------------------------------------------------------------------------- 

e-------------------------------------------------------------------- 
b---4--2---0--2---------------------------------------------------------- 
g-------------------------------------------------------------------- 
d---3--2---0--2---------------------------------------------------------- 
a-------------------------------------------------------------------- 
E------------------------------------------------------------------- 
	  

Search Paypal
auto scroll beats size up size down change color hide chords drawings
tab show chords e-chords YouTube Clip e-chords hide all tabs e-chords go to top tab

share with facebook