Aaron Lewis

home > Aaron Lewis

Sober (acoustic) Tab

Aaron Lewis

Difficulty: ExpertExpert

by alyslima

tuner correct add songbook print version text version save to e-mail
chordsukulelecavacokeyboardtabbassdrumsharmonicsflute Guitar Pro
chords

Sober (acoustic)

  		
Drop D 
 

 
------------------------------------------------------------------| 
------------------------------------------------------------------| 
--14------14------14------14------14-12-----12------12------------| 
----0-------0--------0--------0-------0---0-------0--------0---0--| 
----0-------------------------------------------------------------| 
------------------------------------------------------------------| 
 

 
-------------------------------------------------------------------| 
-------------------------------------------------------------------| 
-15--------15---------15-------15-----------12-----12-------12h14*-| 
------0----------0----------0----------0---------------0--------0*-| 
----------------------------------------------------------------0*-| 
-------------------------------------------------------------------| 
*Starts back at the beginning play 2x's 



At the end of the 2nd time after the 0,15 instead of 0,12 play this: 
 
-------------------|--------------------------------------------| 
-------------------|--------------------------------------------| 
--15-s-17---17---17|--------------------------------------------| 
----0------0-----0-|12p---------------13---13----------13----13-| 
-------------------|12p-Build slowly--13---13----------13----13-| 
-------------------|12p--- release ---13---13----------13----13-| 
 


 
-0-----0----0----0----0----0----0-| 
-3-----3----3----3----3----3----3-| 
-2-----0----3----0----2----0----3-| 
-0-----0----0----0----0----0----0-| 
----------------------------------| 
----------------------------------| 
 


 
Full  hold bend       ---------------| 
-----------------------            ---------------| 
-----------------------            ---------------| 
 

Then chours 
Then this is the lil outro (....I want what I want)  Listen for timing 
 
-----------------------------------------------------------------------------| 
--3----4-----6---------------------------------------------------------------| 
--2----3-----5--THEN-( I Play This)------------------------------------------| 
-----------------------------------12--12--x--x-12--12x--x-13--13------------| 
-----------------------------------12--12--x--x-12--12x--x-13--13------------| 
-----------------------------------12--12--x--x-12--12x--x-13--13------------| 
 

--------------------------------------------| 
--------------------------------------------| 
-OR You ------------------------------------| 
can play this------0--0-x--x-1--1-x--x-0--0-| 
-------------------0--0-x--x-1--1-x--x-0--0-| 
-------------------0--0-x--x-1--1-x--x-0--0-| 

 
	  

Search Paypal
auto scroll beats size up size down change color hide chords drawings
tab show chords e-chords YouTube Clip e-chords hide all tabs e-chords go to top tab