A Plastic Rose

home > A Plastic Rose

Scream If You Need It Tab

A Plastic Rose

Difficulty: nolevelnolevel

by victborges

tuner correct add songbook print version text version save to e-mail
chordsukulelecavacokeyboardtabbassdrumsharmonicsflute Guitar Pro
chords

Scream If You Need It

  		
 

  |And I-                              | 
e|--------------------------------------| 
B|------0h1p0------------0h1p0----------| 
G|------------0---0------------0---0----| 
D|----0---------0-------0--------0------| 
A|---2-----------------2----------------| 
E|--3-----------------3-----------------| 
  
  | am holding on for chances          | 
e|--------------------------------------| 
B|-----0h1p0-----------0h1p0------------| 
G|----0------0---0----0------0---0------| 
D|---2---------0-----2---------0--------| 
A|--3---------------3-------------------| 
E|--------------------------------------| 

  |And she's-                          | 
e|--------------------------------------| 
B|------0h1p0------------0h1p0----------| 
G|------------0---0------------0---0----| 
D|----0---------0-------0--------0------| 
A|---2-----------------2----------------| 
E|--3-----------------3-----------------| 
  
  | been driving round for days        | 
e|--------------------------------------| 
B|-----0h1p0-----------0h1p0------------| 
G|----0------0---0----0------0---0------| 
D|---2---------0-----2---------0--------| 
A|--3---------------3-------------------| 
E|--------------------------------------| 


  |And I-                              | 
e|--------------------------------------| 
B|------0h1p0------------0h1p0----------| 
G|------------0---0------------0---0----| 
D|----0---------0-------0--------0------| 
A|---2-----------------2----------------| 
E|--3-----------------3-----------------| 
  
  | am thinking things that no one should hear | 
e|--------------------------------------| 
B|-----0h1p0-----------0h1p0------------| 
G|----0------0---0----0------0---0------| 
D|---2---------0-----2---------0--------| 
A|--3---------------3-------------------| 
E|--------------------------------------| 


  |And she's-                          | 
e|--------------------------------------| 
B|------0h1p0------------0h1p0----------| 
G|------------0---0------------0---0----| 
D|----0---------0-------0--------0------| 
A|---2-----------------2----------------| 
E|--3-----------------3-----------------| 
  
  | staring at me                      | 
e|--------------------------------------| 
B|-----0h1p0-----------0h1p0--3-0-------| Note the change to the end of this  
G|----0------0---0----0------0----------| Part. This happens a few times in  
D|---2---------0-----2------------------| the track so keep your ear open :) 
A|--3---------------3-------------------| 
E|--------------------------------------| 

Chorus 
              |And scream-             | 
e|--------------------------------------|  
B|-000000000000000000000000000000000000-| I haven't worked out the timing for 
G|-000000000000000000000000000000000000-| The Chorus, so just play this along 
D|-000000000000000000000000000000000000-| with the track and change when Ian 
A|-222222222222222222222222222222222222-| changes and you'll get the timing.  
E|-333333333333333333333333333333333333-| 

    |if you need it-                   | 
e|--------------------------------------| 
B|-111111111111111111111111111111111111-| 
G|-000000000000000000000000000000000000-| 
D|-222222222222222222222222222222222222-| 
A|-333333333333333333333333333333333333-| 
E|--------------------------------------| 


             |And hold-             | 
e|--------------------------------------|  
B|-000000000000000000000000000000000000-|  
G|-000000000000000000000000000000000000-|  
D|-000000000000000000000000000000000000-|  
A|-222222222222222222222222222222222222-|  
E|-333333333333333333333333333333333333-| 

    |it til it's free                 | 
e|--------------------------------------| 
B|-111111111111111111111111111111111111-| 
G|-000000000000000000000000000000000000-| 
D|-222222222222222222222222222222222222-| 
A|-333333333333333333333333333333333333-| 
E|--------------------------------------| 


  
e|--------------------------------------| 
B|------0h1p0------------0h1p0----------| 
G|------------0---0------------0---0----| 
D|----0---------0-------0--------0------| 
A|---2-----------------2----------------| 
E|--3-----------------3-----------------| 
  
   
e|---------------------------------------------| 
B|-----0h1p0-----------0h1p0---3---5---7---8---| This intro I changed because 
G|----0------0---0----0------0---0---0---0-----| it was easier for me to do  
D|---2---------0-----2-------------------------| my own cover of the track 
A|--3---------------3--------------------------| in almost it's original  
E|---------------------------------------------| format!  

e|--------------------------------------| 
B|------0h1p0------------0h1p0----------| 
G|------------0---0------------0---0----| 
D|----0---------0-------0--------0------| 
A|---2-----------------2----------------| 
E|--3-----------------3-----------------| 
  
   
e|---------------------------------------------| 
B|-----0h1p0-----------0h1p0---3---5---7---8---| 
G|----0------0---0----0------0---0---0---0-----| 
D|---2---------0-----2-------------------------| 
A|--3---------------3--------------------------| 
E|---------------------------------------------| 


|And she's-                            | 
e|--------------------------------------| 
B|------0h1p0------------0h1p0----------| 
G|------------0---0------------0---0----| 
D|----0---------0-------0--------0------| 
A|---2-----------------2----------------| 
E|--3-----------------3-----------------| 
  
  | throwing me those glances         | 
e|--------------------------------------| 
B|-----0h1p0-----------0h1p0------------| 
G|----0------0---0----0------0---0------| 
D|---2---------0-----2---------0--------| 
A|--3---------------3-------------------| 
E|--------------------------------------| 


|And I've-                             | 
e|--------------------------------------| 
B|------0h1p0------------0h1p0----------| 
G|------------0---0------------0---0----| 
D|----0---------0-------0--------0------| 
A|---2-----------------2----------------| 
E|--3-----------------3-----------------| 
  
  | been thinking about her          | 
e|--------------------------------------| 
B|-----0h1p0-----------0h1p0------------| 
G|----0------0---0----0------0---0------| 
D|---2---------0-----2---------0--------| 
A|--3---------------3-------------------| 
E|--------------------------------------| 

|And she's-                            | 
e|--------------------------------------| 
B|------0h1p0------------0h1p0----------| 
G|------------0---0------------0---0----| 
D|----0---------0-------0--------0------| 
A|---2-----------------2----------------| 
E|--3-----------------3-----------------| 
  
  | been holding on for decades        | 
e|--------------------------------------| 
B|-----0h1p0-----------0h1p0------------| 
G|----0------0---0----0------0---0------| 
D|---2---------0-----2---------0--------| 
A|--3---------------3-------------------| 
E|--------------------------------------| 

|And I've-                             | 
e|--------------------------------------| 
B|------0h1p0------------0h1p0----------| 
G|------------0---0------------0---0----| 
D|----0---------0-------0--------0------| 
A|---2-----------------2----------------| 
E|--3-----------------3-----------------| 
  
  | been staring at her                 | 
e|--------------------------------------| 
B|-----0h1p0-----------0h1p0------------| 
G|----0------0---0----0------0---0------| 
D|---2---------0-----2---------0--------| 
A|--3---------------3-------------------| 
E|--------------------------------------| 

Chorus  
             |And scream-             | 
e|--------------------------------------|  
B|-000000000000000000000000000000000000-|  
G|-000000000000000000000000000000000000-|  
D|-000000000000000000000000000000000000-|  
A|-222222222222222222222222222222222222-|  
E|-333333333333333333333333333333333333-| 

    |if you need it-                   | 
e|--------------------------------------| 
B|-111111111111111111111111111111111111-| 
G|-000000000000000000000000000000000000-| 
D|-222222222222222222222222222222222222-| 
A|-333333333333333333333333333333333333-| 
E|--------------------------------------| 


             |And hold-             | 
e|--------------------------------------|  
B|-000000000000000000000000000000000000-|  
G|-000000000000000000000000000000000000-|  
D|-000000000000000000000000000000000000-|  
A|-222222222222222222222222222222222222-|  
E|-333333333333333333333333333333333333-| 

    |it til it's free                 | 
e|--------------------------------------| 
B|-111111111111111111111111111111111111-| 
G|-000000000000000000000000000000000000-| 
D|-222222222222222222222222222222222222-| 
A|-333333333333333333333333333333333333-| 
E|--------------------------------------| 

             |And scream-             | 
e|--------------------------------------|  
B|-000000000000000000000000000000000000-|  
G|-000000000000000000000000000000000000-|  
D|-000000000000000000000000000000000000-|  
A|-222222222222222222222222222222222222-|  
E|-333333333333333333333333333333333333-| 

    |Scream if you need it-            | 
e|--------------------------------------| 
B|-111111111111111111111111111111111111-| 
G|-000000000000000000000000000000000000-| 
D|-222222222222222222222222222222222222-| 
A|-333333333333333333333333333333333333-| 
E|--------------------------------------| 


             |And hold-             | 
e|--------------------------------------|  
B|-000000000000000000000000000000000000-|  
G|-000000000000000000000000000000000000-|  
D|-000000000000000000000000000000000000-|  
A|-222222222222222222222222222222222222-|  
E|-333333333333333333333333333333333333-| 

    |it til it's free                 | 
e|--------------------------------------| 
B|-111111111111111111111111111111111111-| 
G|-000000000000000000000000000000000000-| 
D|-222222222222222222222222222222222222-| 
A|-333333333333333333333333333333333333-| 
E|--------------------------------------| 

BREAKDOWN / 'FREAKOUT'  
e|--------------------------| 
B|-000000111111333333111111-| This part I changed from the original too. In  
G|-000000000000000000000000-| the video, Ian does a little solo/breakdown  
D|-000000000000000000000000-| that works well with the piano in the back.  
A|-222222222222222222222222-| However, I don't own nor play piano, so I use  
E|-333333333333333333333333-| a 4 track to put a solo over the top of this.  

e|--------------------------| 
B|-000000111111333333111111-| You can use mine, or just refer to the video 
G|-000000000000000000000000-| and what I've given you so far and I'm sure you 
D|-222222222222222222222222-| can work out Ian's little solo/breakdown just  
A|-333333333333333333333333-| as easy as I worked all this out.  
E|--------------------------| 

OUTRO 

|And scream-                           | 
e|--------------------------------------| 
B|------0h1p0------------0h1p0----------| 
G|------------0---0------------0---0----| 
D|----0---------0-------0--------0------| 
A|---2-----------------2----------------| 
E|--3-----------------3-----------------| 
  
  | if you need it                     | 
e|--------------------------------------| 
B|-----0h1p0-----------0h1p0------------| 
G|----0------0---0----0------0---0------| 
D|---2---------0-----2---------0--------| 
A|--3---------------3-------------------| 
E|--------------------------------------| 

|And hold-                            | 
e|--------------------------------------| 
B|------0h1p0------------0h1p0----------| 
G|------------0---0------------0---0----| 
D|----0---------0-------0--------0------| 
A|---2-----------------2----------------| 
E|--3-----------------3-----------------| 
  
  | it till it's free                  | 
e|--------------------------------------| 
B|-----0h1p0-----------0h1p0------------| 
G|----0------0---0----0------0---0------| 
D|---2---------0-----2---------0--------| 
A|--3---------------3-------------------| 
E|--------------------------------------| 


    END ON               
e|---------------------------------------| 
B|-----0h1p0--3---0h1p0--------0---------| 
G|---0------0---0------ 0-0h2--0---------| 
D|--2--------------------------0---------| 
A|-3---------------------------2---------| 
E|-----------------------------3---------| 
	  

Search Paypal
auto scroll beats size up size down change color hide chords drawings
tab show chords e-chords YouTube Clip e-chords hide all tabs e-chords go to top tab