A Life Once Lost

With Pitiless Blows

A Life Once Lost

tabs

by  CARLLUZ

save to print version add songbook text version e-mail correct tuner
chordsukulelecavacokeyboardtabbassdrumsharmonicaflute Guitar Pro
close

there isn't a video lesson for this song

chords

With Pitiless Blows

	  		

Verse Riff (played during lead guitar whammy bend as well as the verse) 

 
E ------------------------------------------------------------------| 
B ------------------------------------------------------------------| 
G ------------------------------------------------------------------| 
D ------------------------------------------------------------------| 
A -----4---4------4---4------4-5------4---4------4---4------4-5---4-| 
D 0--1---1---0--1---1---0--1-----0--1---1---0--1---1---0--1-----0---| 
 

played a bunch of times into... 

Bridge A 

 
E -----------------------------------------------------------------| 
B -----------------------------------------------------------------| 
G -----------------------------------------------------------------| 
D -----------------------------------------------------------------| 
A -1--0--0--0-0--0-0--1-0--0-0------0--0--0-0-0--0-0------000--0-0-| 
D -2--0--0--0-0--0-0--2-0--0-0-1-0--0--0--0-0-0--0-0-1-0--000--0-0-| 
 
      .  .  . .  . .    .  . .      .  .  . . .  . .      ...  . . 

that's played twice until the... 

Chorus 

 
E ----------------------------------------------| 
B ----------------------------------------------| 
G ----------------------------------------------| 
D ----------------3-------------------------3b--| 
A -2-2---1---1--2---4-1b--2-2---1---1--1--2-----| 
D -4-4-0-4-0-4------------4-4-0-4-0-4-----------| 
 
       .   .                  .   . 

Repeated two times, repeat the previous sections and after that... 

Bridge B 

 
E ------------------------------------------------| 
B ------------------------------------------------| 
G ------------------------------------------------| 
D ------------------------------------------------| 
A -4--3---4------4------5------4------5-0-0-0-0-0-| 
D ----------0--0---0--0---0--0---0--0---0-0-0-0-0-| 
 
                                        . . . . . 
Repeat two more times but without the "4--3" part. 

Breakdown(!) 

 
E ---------------------------------------------------------------------| 
B ---------------------------------------------------------------------| 
G ---------------------------------------------------------------------| 
D --000----000---000-000---000--000-000---000---000---000-000--000-000-| 
A --000----000---000-000---000--000-000---000---000---000-000--000-000-| 
D --000----000---000-000---000--000-000---000---000---000-000--000-000-| 
 

 
		  

Full key step upFull key step up
Half key step upHalf key step up
Half key step downHalf key step down
Full key step downFull key step down
hide glossary

See also:

tabs Simon & Garfunkel - Sounds of silence tabs The Strokes - Juicebox tabs John Mayer - Belief tabs Guns N' Roses - Sweet Child o' mine tabs Guns N' Roses - November Rain tabs Foo Fighters - Everlong (acústico)
e-chords

Other versions:

tabs A Life Once Lost - With Pitiless Blows
auto scroll beats size up size down change color hide chords drawings
tab show chords e-chords YouTube Clip e-chords hide all tabs e-chords go to top tab

share