A Life Once Lost

Vulture

A Life Once Lost

tabs

by  CARLLUZ

save to print version add songbook text version e-mail correct tuner
chordsukulelecavacokeyboardtabbassdrumsharmonicaflute Guitar Pro
close

there isn't a video lesson for this song

chords

Vulture

	  		
Guitar 1 intro and verse 

 
D|---2/3\2\1/2\1xxxxxxxxxx22-1\2/11xxxxxxxxxx-|-x-x-------| 
A|--------------------------------------------|-----------|(3)*played once 
D|--------------------------------------------|-----------| 
G|--------------------------------------------|-----------| 
B|--------------------------------------------|-----------| 
e|--------------------------------------------|-----------| 
 

Guitar2 
 
D|---2/3\2\1/2\1xxxxxxxxxx22-1\2/11xxxxxxxxxx-| 
A|--------------------------------------------| 
D|--------------------------------------------| 
G|--------------------------------------------| 
B|--------------------------------------------| 
e|--------------------------------------------| 
 

pre Chorus riff 
Guitar 1 
 
D|----00xxx3B3B-------| 
A|------33------------| 
D|5B----55------------| 
G|-------------9997B~-| 
B|--------------------| 
e|--------------------| 
 

Guitar 2 
 
D|----00xxx3B3B-------| 
A|----0033------------| 
D|5B----xx-----9997B~-| 
G|------55------------| 
B|--------------------| 
e|--------------------| 
 

Chorus 

Guitar1&2 

 
D|0-0-0-0-0-0-0-0-0-5-7-9---0-0-0-0-0-0-0-0-0-0-5-7-9---0-0-0-0-0-0-0-0-0-| 
A|[email protected]^[email protected][email protected]| 
D|------------------------------------------------------------------------| 
G|------------------------------------------------------------------------| 
B|------------------------------------------------------------------------| 
e|------------------------------------------------------------------------| 
 

 
D|0-0-0---0-0-0-0-0---0-0-0-0-0-----| 
A|-----9B~---------9B~---------11B~-| 
D|----------------------------------| 
G|----------------------------------|   *play 2nd time without numBers with @ 
B|----------------------------------| 
e|----------------------------------| 
 

verse(same) 

BridGe#1 Guitar 1&2 

 
D|2/3\2\1/2\1x-x-x-x-x22-1/2\11xxx-x-x-x-| 
A|---------------------------------------| 
D|---------------------------------------| 
G|---------------------------------------| 
B|---------------------------------------| 
e|---------------------------------------| 
 

BridGe#2 Guitar 2 

 
D|1--1-1-1-1-| 
A|1--1-1-1-1-| 
D|1--1-1-1-1-| 
G|-----------| 
B|-----------| 
e|-----------| 
 

Guitar 1 solo 

 
D|-------------------------------------------------| 
A|-------------------------------------------------| 
D|-------------------------------------------------| 
G|-------------------------------------------------| 
B|4h6h74h6h74h6h74h6h74h6h77h6647h6h47h647h6h47h6h4 
e|------------------------------------------------- 
 

Guitar 1 
                          play after second repeat riff2 
 
D|0-4Bx-0-0-4Bx-0--x-x-x|-3B~0-3-5-3-0-----| 
A|-----------------x-x-x|3-----------------|(3)* 
D|----------------------|------------------| 
G|----------------------|------------------| 
B|----------------------|------------------| 
e|----------------------|------------------| 
 

Guitar 2 

 
D|---------------------------------| 
A|---------------------------------| 
D|---------------------------------| 
G|---------------------------------| 
B|15^15^17^17^17^17^17^19^Bend full| 
e|---------------------------------| 
 

 
		  

See also:

tabs Simon & Garfunkel - Sounds of silence tabs The Strokes - Juicebox tabs John Mayer - Belief tabs Guns N' Roses - Sweet Child o' mine tabs Guns N' Roses - November Rain tabs Foo Fighters - Everlong (acústico)
e-chords

Other versions:

tabs A Life Once Lost - Vulture tabs The Offspring - Vultures tabs John Mayer - Vultures tabs Axewound - Vultures tabs Power Trip - Vultures tabs Oceans Ate Alaska - Vultures And Sharks
auto scroll beats size up size down change color hide chords drawings
tab show chords e-chords YouTube Clip e-chords hide all tabs e-chords go to top tab

share