A Day to Remember

Westfall

A Day to Remember

tabs

by  GUSTSILVA

save to print version add songbook text version e-mail correct tuner
chordsukulelecavacokeyboardtabbassdrumsharmonicaflute Guitar Pro
close

there isn't a video lesson for this song

chords

Westfall

	  		
Intro / Principal: 

 
E|--------------------------------------------------------------------------------------------| 
B|--------------------------------------------------------------------------------------------| 
G|--------------------------------------------------------------------------------------------| 
D|-------------12----------------------12--------------------14----------------------14-------| 
A|-------10-------10----10-------10-------10-----------12-------12----12-------12-------12----| 
E|-10-10----10-------10----10-10----10-------10--12-12----12-------12----12-12----12-------12-| 
 
  .  .  .  .  .  .  .  .  .  .  .  .  .  .  .   .  .  .  .  .  .  .  .  .  .  .  .  .  .  . 
 
E|-------------------------------|----------------------------------------------| 
B|-------------------------------|----------------------------------------------| 
G|-------------------------------|----------------------------------------------| 
D|---------11-------------11-----|-------------12----------------------12-------| 
A|-----9------9---9-----9----9---|-------10-------10----10-------10-------10----| 
E|-9-9---9------9---9-9--------9-|-10-10----10-------10----10-10----10-------10-| 
 
  . . . . .  . . . . . . .  . .   .  .  .  .  .  .  .  .  .  .  .  .  .  .  . 
 
E|-------------------------------| 
B|-------------------------------| 
G|-------------------------------| 
D|-12----------------------------| 
A|-10--(13x)---------------------| 
E|-10----------------------------| 
 

Refrão 2x: 
 
E|---------------------------------------------------------------------| 
B|---------------------------------------------------------------------| 
G|-------------------12-12p11--------------------------12-12p11--------| 
D|-12-12--10-12--12------------12----14-14--14-14--14------------12----| 
A|-10-10--10-10--10------------------12-12--12-12--12------------------| 
E|-10-10--10-10--10------------------12-12--12-12--12------------------| 
 

 
E|---------------------------------------------------------------------| 
B|---------------------------------------------------------------------| 
G|-------------------17-17p16---------------------------12-12p11-------| 
D|-11-11--11-11--11------------17-----12-12--12-12--12-----------12----| 
A|-9--9---9--9---9--------------------10-10--10-10--10-----------------| 
E|-9--9---9--9---9--------------------10-10--10-10--10-----------------| 
 

Ponte: 
 
E|---------------------------------------------------------------------| 
B|---------------------------------------------------------------------| 
G|---------------------------------------------------------------------| 
D|-0--0-0-0--0-0--0-0--0-0-0---12--12-12-12--12-12--12-12--12-12-12----|  (2x) 
A|-0--0-0-0--0-0--0-0--0-0-0---10--10-10-10--10-10--10-10--10-10-10----| 
E|-0--0-0-0--0-0--0-0--0-0-0---10--10-10-10--10-10--10-10--10-10-10----| 
 

E|-----------| 
B|-----------| 
G|-12--------| 
D|-12--(X 4)-| 
A|-10--------| 
E|-10--------| 

Final: 
E|-----------------------------------------------| 
B|-----------------------------------------------| 
G|-12-12-12-12-11-11-11-12---9-9-9-11-11-12------| 
D|-12-12-12-12-11-11-11-12---9-9-9-11-11-12------| 
A|-10-10-10-10-9--9--9--10---7-7-7-9--9--10------| 
E|-10-10-10-10-9--9--9--10---7-7-7-9--9--10------| 
		  

See also:

tabs Panic! At The Disco - This Is Halloween tabs JerryC - Canon rock tabs Rihanna - Shut Up And Drive tabs Lindsey Stirling - Crystallize tabs Panic! At The Disco - Only difference between martyrdom and suicide is press coverage tabs Augustana - Boston
e-chords

Other versions:

tabs A Day to Remember - Westfall
auto scroll beats size up size down change color hide chords drawings
tab show chords e-chords YouTube Clip e-chords hide all tabs e-chords go to top tab

share