A Day to Remember

The Document Speaks For Itself

A Day to Remember

tabs

by  EDSOOLIVEIRA

save to print version add songbook text version e-mail correct tuner
chordsukulelecavacokeyboardtabbassdrumsharmonicaflute Guitar Pro
close

there isn't a video lesson for this song

chords

The Document Speaks For Itself

	  		

Intro 

D|---------------------------------------------------------------------------| 
A|---------------------------------------------------------------------------| 
F|---------------------------------------------------------------------------| 
C|-0-00000000000--3-3-3-3/5-555555555h6666-555-------------------------------| X2 
G|-0-00000000000--3-3-3-3/5-555555555h6666-555-------------------------------| 
C|-0-00000000000--3-3-3-3/5-555555555h6666-555-------------------------------| 

Verse 

D|---------------------------------------------------------------------------| 
A|---------------------------------------------------------------------------| 
F|---------------------------------------------------------------------------| 
C|-000000000000000--3-3-3-3/5-555555555h6666-555-----------------------------| 
G|-000000000000000--3-3-3-3/5-555555555h6666-555-----------------------------| 
C|-000000000000000--3-3-3-3/5-555555555h6666-555-----------------------------| 

D|---------------------------------------------------------------------------| 
A|---------------------------------------------------------------------------| 
F|---------------------------------------------------------------------------| 
C|-000000000000000--3-3-3-3/5-555555555h6666666------------------------------| 
G|-000000000000000--3-3-3-3/5-555555555h6666666------------------------------| 
C|-000000000000000--3-3-3-3/5-555555555h6666666------------------------------| 

Pre-Chorus 

D|---------------------------------------------------------------------------| 
A|---------------------------------------------------------------------------| 
F|---------------------------------------------------------------------------| 
C|---------------------------------3/5555555-666-555-------------------------| 
G|-0-0-0-0--00-00--0-0-0-0--00-00--3/5555555-666-555-------------------------| 
C|-0-0-0-0--00-00--0-0-0-0--00-00--3/5555555-666-555-------------------------| 
            pm pm           pm pm 

D|---------------------------------------------------------------------------| 
A|---------------------------------------------------------------------------| 
F|---------------------------------------------------------------------------| 
C|---------------------------------3/5555555-66666666------------------------| 
G|-0-0-0-0--00-00--0-0-0-0--00-00--3/5555555-66666666------------------------| 
C|-0-0-0-0--00-00--0-0-0-0--00-00--3/5555555-66666666------------------------| 
            pm pm           pm pm 

D|---------------------------------------------------------------------------| 
A|---------------------------------------------------------------------------| 
F|---------------------------------------------------------------------------| 
C|-8-----7--5------8----7--5---2---000---------------------------------------| 
G|-8-----7--5------8----7--5---2---000---------------------------------------| 
C|-8-----7--5------8----7--5---2---000---------------------------------------| 

Chorus 

D|---------------------------------------------------------------------------------------------| 
A|---------------------------------------------------------------------------------------------| 
F|---------------------------------------------------------------------------------------------| 
C|--8------3------6-----7-----0------8------3------7-----6-------------------------------------| 
G|--8-X16--3-X16--6-X9--7-X7--0-X16--8-X16--3-X16--7-X8--6-X8---0-0-0-0--00-00--0-0-0-0--00-00-| 
C|--8------3------6-----7-----0------8------3------7-----6------0-0-0-0--00-00--0-0-0-0--00-00-| 
                                                                         pm pm           pm pm 
Verse 
Pre-Chorus 
Chorus 

Breakdown 

D|---------------------------------------------------------------------------| 
A|---------------------------------------------------------------------------| 
F|---------------------------------------------------------------------------| 
C|-0-00-000-3333-4444-0--0-0-0---0/6666-0---0-0-0----------------------------| 
G|-0-00-000-3333-4444-0--0-0-0---0/6666-0---0-0-0----------------------------| 
C|-0-00-000-3333-4444-0--0-0-0---0/6666-0---0-0-0----------------------------| 

Chorus 
Ending Breakdown 

**This only covers the rhythm guitar part. (Neil Westfall)** 

************************************ 

| /   slide up 
| \   slide down 
| h   hammer-on 
| p   pull-off 
| ~   vibrato 
| +   harmonic 
| x   Mute note 
| b   Bend 
| pb  Pre-bend 
| br  Bend release 
| pbr Pre-bend release 
| brb Bend release bend 

************************************ 
		  

See also:

tabs Panic! At The Disco - This Is Halloween tabs JerryC - Canon rock tabs Rihanna - Shut Up And Drive tabs Lindsey Stirling - Crystallize tabs Panic! At The Disco - Only difference between martyrdom and suicide is press coverage tabs Augustana - Boston
e-chords

Other versions:

tabs A Day to Remember - The Document Speaks For Itself
auto scroll beats size up size down change color hide chords drawings
tab show chords e-chords YouTube Clip e-chords hide all tabs e-chords go to top tab

share