A Day to Remember

Homesick

A Day to Remember

tabs Intermediate intermediate

by  GUSTSILVA

save to print version add songbook text version e-mail correct tuner
chordsukulelecavacokeyboardtabbassdrumsharmonicaflute Guitar Pro
close

there isn't a video lesson for this song

chords

Homesick

	  		
(verse 1) (0:00) 

 
D|-------------------------------------------------------------------| 
A|-------------------------------------------------------------------| 
F|------------------------------------555555555555-------------------| 
C|-Pickslide-777777777777-000000-333333-555555555555-555555-66666666-| 
G|-Pickslide-777777777777-000000-333333-333333333333-555555-66666666-| 
C|-Pickslide-777777777777-000000-333333--------------555555-66666666-| 
 

 
D|------------------------------------------------------------| 
A|------------------------------------------------------------| 
F|-------------------------------555555555555-----------------| 
C|-777-xxx-777-xxx-000000-333333-555555555555-555555-66666666-| 
G|-777-xxx-777-xxx-000000-333333-333333333333-555555-66666666-| 
C|-777-xxx-777-xxx-000000-333333--------------555555-66666666-| 
 

(pre Chorus 1) (0:20) 
 
D|----------------------------------------------------| 
A|----------------------------------------------------| 
F|----------------------------------------------------| 
C|-33333/55555/77777/10~-33333/55555/7777777777777777-| 
G|-33333/55555/77777/10~-33333/55555/7777777777777777-| 
C|-33333/55555/77777/10~-33333/55555/7777777777777777-| 
 
  
 

 
D|------------------------------------| 
A|------------------------------------| 
F|------------------------------------| 
C|-33333/55555/77777/10~----3~----/5~-| 
G|-33333/55555/77777/10~----3~----/5~-| 
C|-33333/55555/77777/10~----3~----/5~-| 
 

(Chorus 1) (0:39)                              (0:56) 
 
D|------------------------------------|      D:----| 
A|------------------------------------|      A:----| 
F|-5555555555555555-------------------|      F:----| 
C|-5555555555555555-77777777-33333333-| (x2) C:-6~-| 
G|-3333333333333333-77777777-33333333-|      G:-6~-| 
C|------------------77777777-33333333-|      C:-6~-| 
 

(verse 2) (0:58) 
 
D|-------------------------------------------------------------------| 
A|-------------------------------------------------------------------| 
F|---------------------------------------555555555555----------------| 
C|-Pickslide-777777777777-000000-333333-555555555555-555555-66666666-| 
G|-Pickslide-777777777777-000000-333333-333333333333-555555-66666666-| 
C|-Pickslide-777777777777-000000-333333--------------555555-66666666-| 
 

 
D|------------------------------------------------------------| 
A|------------------------------------------------------------| 
F|-------------------------------555555555555-----------------| 
C|-777-xxx-777-xxx-000000-333333-555555555555-555555-66666666-| 
G|-777-xxx-777-xxx-000000-333333-333333333333-555555-66666666-| 
C|-777-xxx-777-xxx-000000-333333--------------555555-66666666-| 
 

(pre Chorus 2) (1:17) 
 
D|----------------------------------------------------| 
A|----------------------------------------------------| 
F|----------------------------------------------------| 
C|-33333/55555/77777/10~-33333/55555/7777777777777777-| 
G|-33333/55555/77777/10~-33333/55555/7777777777777777-| 
C|-33333/55555/77777/10~-33333/55555/7777777777777777-| 
 
 

 

 
D|------------------------------------| 
A|------------------------------------| 
F|------------------------------------| 
C|-33333/55555/77777/10~----3~----/5~-| 
G|-33333/55555/77777/10~----3~----/5~-| 
C|-33333/55555/77777/10~----3~----/5~-| 
 

(Chorus 2) (1:36) 
 
D|------------------------------------| 
A|------------------------------------| 
F|-5555555555555555-------------------| 
C|-5555555555555555-77777777-33333333-| (x2) 
G|-3333333333333333-77777777-33333333-| 
C|------------------77777777-33333333-| 
 

(mini breakdown) (1:54) 
 
D|-------------------------------------------| 
A|-------------------------------------------| 
F|-55-555-555-555-55555555-------------------| 
C|-55-555-555-555-55555555-77777777-33333333-| (x2) 
G|-33-333-333-333-33333333-77777777-33333333-| 
C|-------------------------77777777-33333333-| 
 

(bridge) (2:11) 
 
D|-----------------------------------------------------------------| 
A|-----------------------------------------------------------------| 
F|-5~--------------5~----------------------------------------------| 
C|-5~--------------5~---------------7~---------------5555555555555-| 
G|-3~--------------3~---------------7~---------------5555555555555-| 
C|----------------------------------7~---------------5555555555555-| 
 
 
 
                                               (Slowly release palm) 
(breakdown) (2:29) 
 
D|---------------------------------------------------------| 
A|---------------------------------------------------------| 
F|-------5555555-------5555555-------5555555-------5555555-| 
C|-33333-xxxxxxx-33333-xxxxxxx-77777-xxxxxxx-55555-xxxxxxx-| (x2) 
G|-33333-3333333-33333-3333333-77777-3333333-55555-3333333-| 
C|-33333---------33333---------77777---------55555---------| 
 

(3:04) 
 
D|--------------------------------| 
A|--------------------------------| 
F|---------------5555555555555555-| 
C|-3~------------5555555555555555-| 
G|-3~------------3333333333333333-| 
C|-3~-----------------------------| 
 
 

 
              (Slowly release palm) 

(Chorus 3) (3:12) 
 
D|------------------------------------| 
A|------------------------------------| 
F|-5555555555555555-------------------| 
C|-5555555555555555-77777777-33333333-| (x2) 
G|-3333333333333333-77777777-33333333-| 
C|------------------77777777-33333333-| 
 

(mini breakdown 2) (3:30) 
 
D|-------------------------------------------| 
A|-------------------------------------------| 
F|-55-555-555-555-55555555-------------------| 
C|-55-555-555-555-55555555-77777777-33333333-| 
G|-33-333-333-333-33333333-77777777-33333333-| 
C|-------------------------77777777-33333333-| 
 

 
D|-------------------------------------------| 
A|-------------------------------------------| 
F|-55-555-555-555-55555555-------------------| 
C|-55-555-555-555-55555555-77777777-3~-------| 
G|-33-333-333-333-33333333-77777777-3~-------| 
C|-------------------------77777777-3~-------| 
 

(just thought id put this in here) 

(lead Breakdown) (2:29) 

(the only part I could work out for the lead) 
 
D|---------------------------------------------| 
A|---------------------------------------------| 
F|-------5555555-------12121212-10101010-99-10-| 
C|-33333-xxxxxxx-33333-x-x-x-x--x-x-x-x--xx-x--| 
G|-33333-3333333-33333-10101010-8-8-8-8--77-8--| 
C|-33333---------33333-------------------------| 
 

 
D|---------------------------------------------| 
A|---------------------------------------------| 
F|-------5555555-------12121212-10101010-99-10-| 
C|-77777-xxxxxxx-55555-x-x-x-x--x-x-x-x--xx-x--| 
G|-77777-3333333-55555-10101010-8-8-8-8--77-8--| 
C|-77777---------55555-------------------------| 
  
		  

See also:

tabs MC Hammer - Can't Touch This tabs Plain White T's - Rhythm Of Love tabs Current Swell - Young And Able tabs Phoenix - Lisztomania tabs Plain White T's - Hey There Delilah (ver. 2) tabs Fort Minor - High road
e-chords

Other versions:

tabs Big Heavy Stuff - Homesick tabs Kings Of Convenience - Homesick tabs Atlanta Rhythm Section - Homesick tabs A Day to Remember - Homesick tabs Catfish And The Bottlemen - Homesick tabs Fall Out Boy - Homesick At Space Camp
auto scroll beats size up size down change color hide chords drawings
tab show chords e-chords YouTube Clip e-chords hide all tabs e-chords go to top tab

share