A Day to Remember

Heartless

A Day to Remember

tabs

by  GUSTSILVA

save to print version add songbook text version e-mail correct tuner
chordsukulelecavacokeyboardtabbassdrumsharmonicaflute Guitar Pro
close

there isn't a video lesson for this song

chords

Heartless

	  		
 
D|------------------------------------------------------------------------|---------| 
A|------------------------------------------------------------------------|---------| 
F|------------------------------------------------------------------------|---------|  (4x) 
C|------------------------------------------------------------------------|---------| 
G|-0-0-0-0-0-0-0-0-0-0-0-0-0-3-0------0-0-0-0-0-0-0-0-0-0-0-0-0-0-3-0-----|---------| 
C|-0-0-0-0-0-0-0-0-0-0-0-0-0-----3-0--0-0-0-0-0-0-0-0-0-0-0-0-0-0-----3~--|-3--0~---| 
 

 
D|-----------------------------------------------------------------------| 
A|-----------------------------------------------------------------------| 
F|-----------------------------------------------------------------------| 
C|-----------------------------------------------------------------------| 
G|-0--0----0-0--0-0-0-0--0--------0-0----0-0--0-0-0-0--0--------0~--0----| 
C|-0--0----0-0--0-0-0-0--0--------0-0----0-0--0-0-0-0--0--------0~--0----| 
 

 
D|------------------------------------------------------------| 
A|------------------------------------------------------------| 
F|------------------------------------------------------------| 
C|------------------------------------------------------------| 
G|------3p2---------------3p2----3--3--3-3-3--3--3-3--3-3-3~--| 
C|-0--0-----0--0--0-0--0------3--3--3--3-3-3--3--3-3--3-3-3~--| 
                                                                 (2x) 

 
D|------------------------------------------------------------| 
A|------------------------------------------------------------| 
F|------------------------------------------------------------| 
C|------------------------------------------------------------| 
G|--5--5--5-5-5--5--5-5--5-5-5--8--8--8-8-8--8--8-8--8-8-8----| 
C|--5--5--5-5-5--5--5-5--5-5-5--8--8--8-8-8--8--8-8--8-8-8----| 
 

 
D|------------------------------------------------------------------------|------------| 
A|------------------------------------------------------------------------|------------| 
F|------------------------------------------------------------------------|------------| 
C|------------------------------------------------------------------------|------------| (4x) 
G|-0-0-0-0-0-0-0-0-0-0-0-0-0-3-0------0-0-0-0-0-0-0-0-0-0-0-0-0-0-3-0-----|-------3*~--| 
C|-0-0-0-0-0-0-0-0-0-0-0-0-0-----3-0--0-0-0-0-0-0-0-0-0-0-0-0-0-0-----3~--|-3--0-------| 
 


 
D|-----------------------------------------------------|------------------| 
A|-----------------------------------------------------|------------------| 
F|-----------------------------------------------------|------------------| 
C|-----------------------------------------------------|------------------| (2x) 
G|-0-0-0-0--0-0-0-0--0----0-0-0-0--0-0-0-0--0----------|-0-0-0-0-0-0-0-0--| 
C|-0-0-0-0--0-0-0-0--0----0-0-0-0--0-0-0-0--0----3^----|-0-0-0-0-0-0-0-0--| 
 

Refrão: 
 
D|----------------------------|-------------------| 
A|----------------------------|-------------------| 
F|----------------------------|-------------------| 
C|-0~-------------------------|-0~----------------| (4x) 
G|-0~-------------------------|-0~------------3*--| 
C|-0~----3--0--10/-up-to-3----|-0~----0--3--0-----| 
 

 
D|----------------------------------------------------|---------------------| 
A|----------------------------------------------------|---------------------| 
F|----------------------------------------------------|---------------------| 
C|----------------------------------------------------|---------------------| (4x) 
G|-0--0----0-0-0-0-0-0-0--0---------------------------|---------3*----0--0--| 
C|-0--0----0-0-0-0-0-0-0--0----0-3--0--10/-up-to-3----|-0-3--0--------0--0--| 
 

D|-----------------------------|    |--------| 
A|-----------------------------|    |--------| 
F|-----------------------------|    |--------| 
C|-----------------------------|(7x)|--------| 
G|-0--0----0-0-0-0-0-0-0--0----|    |--0--0--| 
C|-0--0----0-0-0-0-0-0-0--0----|    |--0--0--| 
		  

See also:

tabs Dj Tiesto - lethal industry tabs Dj Tiesto - Welcome To Ibiza tabs OMD - Enola Gay tabs Plain White T's - Write You a Song tabs The Kooks - See the world tabs Current Swell - Young And Able
e-chords

Other versions:

tabs A Day to Remember - Heartless tabs IM5 - Heartless
auto scroll beats size up size down change color hide chords drawings
tab show chords e-chords YouTube Clip e-chords hide all tabs e-chords go to top tab

share