A Day to Remember

A Second Glance

A Day to Remember

tabs

by  JOAOEWERTON

save to print version add songbook text version e-mail correct tuner
chordsukulelecavacokeyboardtabbassdrumsharmonicaflute Guitar Pro
close

there isn't a video lesson for this song

chords

A Second Glance

	  		

Intro.			(6th time do:) 
 
|------------------|    |----------------------------------| 
|------------------|    |----------------------------------| 
|999777999777111177|    |999777999777-11-12-11h12p11-------| 
|0000000000000-0-00| x5    |000000000000---------------12--| 
|------------------|    |----------------------------------| 
|------------------|    |----------------------------------| 
 

"This is for you..." 
 
|------------------|------------------|------------------|------------------| 
|------------------|------------------|------------------|------------------| 
|999777999777111177|999777999777111177|999777999777111177|999777999777111177| 
|0000000000000-0-00|0000000000000-0-00|0000000000000-0-00|0000000000000-0-00| 
|------------------|------------------|------------------|------------------| 
|------------------|------------------|------------------|------------------| 
 

			{Palm Mute........................................} 
 
|-----------------------|------------------------|------------------------| 
|-----------------------|------------------------|------------------------| 
|-----------------------|------------------------|------------------------| 
|5-------7-------9------|5-------7-------0-------|5-------7-------0-------| 
|5-(x16)-7-(x16)-9-(x32)|5-(x15)-7-(x15)-0-(x30)-|5-(x15)-7-(x15)-0-(x28)-| 
|5-------7-------9------|5-------7-------0-------|5-------7-------0-------| 
 

"This is for you..." 
 
|-----------------------| 
|-----------------------| 
|-----------------------| 
|5-------7-------9------|x2 
|5-(x16)-7-(x16)-9-(x32)| 
|5-------7-------9------| 
 

{Palm Mute........................................} 
 
|------------------------|------------------------| 
|------------------------|------------------------| 
|------------------------|------------------------| 
|5-------7-------0-------|5-------7-------0-------| 
|5-(x15)-7-(x15)-0-(x30)-|5-(x16)-7-(x16)-0-(x30)-| 
|5-------7-------0-------|5-------7-------0-------| 
 

"This is for you..." 
 
|-----------------------| 
|-----------------------| 
|-----------------------| 
|5-------7-------9------|x2 
|5-(x16)-7-(x16)-9-(x32)| 
|5-------7-------9------| 
 


 
|------|--------------------------------|-----------------------------------| 
|------|--------------------------------|-----------------------------------| 
|------|--4---4---4---4---4---4---4---4-|--10---10---10---10---10---10---10-| 
|5~~7~~|--8---8---8---8---8---8---8---8-|--14---14---14---14---14---14---14-| 
|5~~7~~|00--00--00--00--00--00--00--00--|00---00---00---00---00---00---00---| 
|5~~7~~|00--00--00--00--00--00--00--00--|00---00---00---00---00---00---00---| 
 
        ..  ..  ..  ..  ..  ..  ..  ..   ..   ..   ..   ..   ..   ..   .. 

 
|---------------------------|---------------------------------| 
|---------------------------|---------------------------------| 
|---------------------------|---------------------------------| 
|---------------------------|---------------------------------| 
|12\\\00~~~~~~~~~00~~~~~~~~~|00~~~~~~~~~00~~~~~~~~~00~~~~~~~~~| 
|12\\\00~~~~~~~~~00~~~~~~~~~|00~~~~~~~~~00~~~~~~~~~00~~~~~~~~~| 
 
      ..	 ..	    ..	       ..	  .. 

"My Friends..." 
|------| 
|------| 
|------| 
|7NH~~~| 
|------| 
|------| 

 
|-------------|-------------|-------------|------------------| 
|-------------|-------------|-------------|------------------| 
|-------------|-------------|-------------|------------------| x2 
|00~~~~0000~~~|00~~~~0000~~~|00~~~~0000~~~|00~~~~0000~-------| 
|00~~~~0000~~~|00~~~~0000~~~|00~~~~0000~~~|00~~~~0000~7h9p7p3| 
 
 ..    ....    ..    ....    ..    ....    ..    .... 

END. 
|-----| 
|-----| 
|-----| 
|0~~~~| 
|0~~~~| 
|0~~~~| 



Right Side 

"This is for you.." 
 
|-----------------------|------------------------|---------------------------------------------------------| 
|-----------------------|------------------------|---------------------------------------------------------| 
|-----------------------|7/9-12-11-7~~7/9-14-7-7~|1414X141414X141414X141414X14/16-14-141414-14/16-14-141414| 
|5-------7-------9------|x-x-x--x--x--x-x-x--x-x-|x-x-Xx-x-x-Xx-x-x-Xx-x-x-Xx--x--x--x-x-x--x--x--x--x-x-x-| 
|5-(x16)-7-(x16)-9-(x32)|5/7-10-9--5~~5/7-12-5-5~|1212X121212X121212X121212X12/14-12-121212-12/14-12-121212| 
|5-------7-------9------|------------------------|---------------------------------------------------------| 
 

 
|---------|--------------------------------------------------------------| 
|---------|--------------------------------------------------------------| 
|---------|--7--6-7--7--666--7--6-7--7--7p6--7--6-7--9-7-6-76-7-9-7-6-776| 
|5~~~~~~~~|77-77-7-77-77---77-77-7-77-77---77-77-7-77-7-7-7--7-7-7-7-7---| 
|5~~~~~~~~|--------------------------------------------------------------| 
|5~~~~~~~~|--------------------------------------------------------------| 
 
	   .. .. . .. ..   .. .. . .. ..   .. .. . .. . . .  . . . . . 

"This is for you.." 
 
|-------------------------------------------|--------------------------------------------| 
|-------------------------------------------|--------------------------------------------| 
|----------------7------9------7------9-----|-----------------7------9------7------14----| 
|5-------7-------x-(x8)-x-(x8)-x-(x8)-x-(x8)|-5-------7-------x-(x8)-x-(x8)-x-(x8)-x-(x8)| 
|5-(x16)-7-(x16)-5------7------5------7-----|-5-(x16)-7-(x16)-5------7------5------12----| 
|5-------7----------------------------------|-5-------7----------------------------------| 
 

"Words can't express..." 
 
|------------------------------------------------------------------------------------| 
|------------------------------------------------------------------------------------| 
|-------------------------14--14--12--12--11--11--9--9-1414x14x14x14x14-11h12p11-----| 
|5-------7-------0------12--12--12--12--12--12--12-12--x-x-xx-xx-xx-xx----------14-12| 
|5-(x15)-7-(x15)-0-(x30)-------------------------------1212x12x12x12x12--------------| 
|5-------7-------0-------------------------------------------------------------------| 
 
 .       .       .      .   .   .   .   .   .   .  . 

"This is for you..." 
 
|--------------------------------------------|-------------------------------------------------------------------| 
|--------------------------------------------|-------------------------------------------------------------------| 
|-----------------7------9------7------14----|-----------------7------9------7------14-----16----19-----18-----14| 
|-5-------7-------x-(x8)-x-(x8)-x-(x8)-x-(x8)|-5-------7-------x-(x8)-x-(x8)-x-(x8)-x-(x6)-x-(x3)x-(x3)-x-(x3)-x-| 
|-5-(x16)-7-(x16)-5------7------5------12----|-5-(x16)-7-(x16)-5------7------5------12-----14----17-----16-----12| 
|-5-------7----------------------------------|-5-------7---------------------------------------------------------| 
 

 
|------------| 
|------------| 
|5~~~~~7~~~~~| 
|x-----x-----| 
|3~~~~~5~~~~~| 
|------------| 
 

 
|-----------------------------------|-----------------------------------| 
|-----------------------------------|-----------------------------------| 
|-----------------------------------|--17---17---17---17---17---17---17-| 
|--9----9----9----9----9----9----9--|--21---21---21---21---21---21---21-| 
|0012-0012-0012-0012-0012-0012-0012-|00---00---00---00---00---00---00---| 
|00---00---00---00---00---00---00---|00---00---00---00---00---00---00---| 
 
 ..   ..   ..   ..   ..   ..   ..    ..   ..   ..   ..   ..   ..   .. 

 
|--------------------------------------------|-----------| 
|--------------------------------------------|-----------| 
|--------------------------------------------|-----------| 
|--------------------------------------------|-----------| 
|----------------tremelo picking-------------|00~~~~~~~~~| 
|12\\\0-8-7-1-15-14-20-19-0-8-7-1-15-14-20-19|00~~~~~~~~~| 
 
                                              .. 

"My friends..." 
|-----|	|-------------|-------------|-------------|------------------| 
|-----|	|-------------|-------------|-------------|------------------| 
|-----|	|-------------|-------------|-------------|------------------| 
|-----|	|-------------|-------------|-------------|------------------| x2 
|12\\\|	|00~~~~0000~~~|00~~~~0000~~~|00~~~~0000~~~|00~~~~0000~-------| 
|12\\\|	|00~~~~0000~~~|00~~~~0000~~~|00~~~~0000~~~|00~~~~0000~7h9p7p3| 
         ..    ....    ..    ....    ..    ....    ..    .... 

END. 
|-----| 
|-----| 
|-----| 
|0~~~~| 
|0~~~~| 
|0~~~~| 
		  

See also:

tabs Panic! At The Disco - This Is Halloween tabs JerryC - Canon rock tabs Rihanna - Shut Up And Drive tabs Lindsey Stirling - Crystallize tabs Panic! At The Disco - Only difference between martyrdom and suicide is press coverage tabs Augustana - Boston
e-chords

Other versions:

tabs A Day to Remember - A Second Glance
auto scroll beats size up size down change color hide chords drawings
tab show chords e-chords YouTube Clip e-chords hide all tabs e-chords go to top tab

share