A Day to Remember

home > A Day to Remember

2nd Sucks Tab

A Day to Remember

Difficulty: BeginnerBeginner

by ubirbomfim

tuner correct add songbook print version text version save to e-mail
chordsukulelecavacokeyboardtabbassdrumsharmonicsflute Guitar Pro
chords

2nd Sucks

  		Intro: 

(0:00 - 0:12) 
(guitarra 1) 
E|-----------------------| 
B|--6-x24--10-x4---5-x4--| 
G|--9------14------9-----| 
D|-----------------------| 
A|-----------------------| 
D|-----------------------| 

(guitarra 2 - fade out) 
E|---------------------| 
B|---------------------| 
G|---------------------| 
D|-1~------------------| 
A|-1~------------------| 
D|-1~------------------| 

Verso 1: 

(0:13 - 0:25) 
(guitarra 1) 
E|-----------------------| 
B|--6-x24--10-x4---5-x4--| 
G|--9------14------9-----| 
D|-----------------------|  (2x) 
A|-----------------------| 
D|-----------------------| 

(guitarra 2) 
E|-----------------------------------------------------| 
B|-----------------------------------------------------| 
G|-----------------------------------------------------| 
D|-----------------------------------------------------| 
A|-111-1--11-11--1111-1-1---1111111-1--11-11-1111-1-1--| 
D|-111-1--11-11--1111-1-1---1111111-1--11-11-1111-1-1--| 
   ... .  .. ..  .... . .   ....... .  .. .. .... . . 
E|-----------------------------------------------------| 
B|-----------------------------------------------------| 
G|-----------------------------------------------------| 
D|-----------------------------------------------------| 
A|-111-1--11-11--1111-1-1---1111111-1--11-11-4444-5-5--| 
D|-111-1--11-11--1111-1-1---1111111-1--11-11-4444-5-5--| 
   ... .  .. ..  .... . .   ....... .  .. .. .... . . 

Verso 1 - 0:26 - 0:40 

(guitarra 1) 
E|-----------------------| 
B|--6-x24--10-x4---5-x4--| 
G|--9------14------9-----| 
D|-----------------------| 
A|-----------------------| 
D|-----------------------| 
(guitarra 2) 
E|-----------------------------------------------------| 
B|-----------------------------------------------------| 
G|-----------------------------------------------------| 
D|-----------------------------------------------------| (2x) 
A|-111-1--11-11--1111-1-1---1111111-1--11-11-1111-1-1--| 
D|-111-1--11-11--1111-1-1---1111111-1--11-11-1111-1-1--| 
  ... .  .. ..  .... . .   ....... .  .. .. .... . . 

Refrão: 
( 0:41 - 0:54 ) 
E|----------------------------| 
B|----------------------------| 
G|----------------------------| 
D|-------------------5-5/8----| (2x) 
A|-0~----3-3/6-0~----3-3/6----| 
D|-0~----3-3/6-0~-------------| 

Verse 2: 

(0:55 - 1:08) 
(guitarra 1) 
E|-----------------------------------------------------| 
B|-----------------------------------------------------| 
G|-----------------------------------------------------| 
D|-----------------------------------------------------| 
A|-111-1--11-11--1111-1-1---1111111-1--11-11-1111-1-1--| 
D|-111-1--11-11--1111-1-1---1111111-1--11-11-1111-1-1--| 
   ... .  .. ..  .... . .   ....... .  .. .. .... . . 
E|-----------------------| 
B|--6-x24--10-x4---5-x4--| 
G|--9------14------9-----| 
D|-----------------------| 
A|-----------------------| 
D|-----------------------| 

(guitarra 2) 
E|-----------------------------------------------------| 
B|-----------------------------------------------------| 
G|-----------------------------------------------------| 
D|-----------------------------------------------------| (2x) 
A|-111-1--11-11--1111-1-1---1111111-1--11-11-1111-1-1--| 
D|-111-1--11-11--1111-1-1---1111111-1--11-11-1111-1-1--| 
   ... .  .. ..  .... . .   ....... .  .. .. .... . . 

Refrão: 
( 1:09 - 1:21 ) 
E|----------------------------| 
B|----------------------------| 
G|----------------------------| 
D|-------------------5-5/8----| (2x) 
A|-0~----3-3/6-0~----3-3/6----| 
D|-0~----3-3/6-0~-------------| 

(Verse 3) 

(1:22 - 1:34) 
(guitarra 1) 
E|----------------------------------------------------------------| 
B|----------------------------------------------------------------| 
G|----------------------------------------------------------------| 
D|----------------------------------------------------------------| 
A|-7~--7-7--8~--7~--0-000-000-000--7~--7-7--8~--7~--0-000--0-000--| 
D|-7~--7-7--8~--7~--0-000-000-000--7~--7-7--8~--7~--0-000--0-000--| 
                    . ... ... ...                   . ...  . ... 
E|-------------------------------------------------------| 
B|-------------------------------------------------------| 
G|-------------------------------------------------------| 
D|-------------------------------------------------------| 
A|-7~--7-7--8~--7~--0-000-000-000--7~--7-7--8~--7~--0-0--| 
D|-7~--7-7--8~--7~--0-000-000-000--7~--7-7--8~--7~--0-0--| 
                    . ... ... ...                   . . 

(guitarra 2) 
E|--------------------------------------------------| 
B|--------------------------------------------------| 
G|--------------------------------------------------| 
D|--------------------------------------------------| 
A|---------0-000-000-000------------0-000--0-000----| 
D|---------0-000-000-000------------0-000--0-000----| 
           . ... ... ...            . ...  . ... 
E|---------------------------------------------| 
B|---------------------------------------------| 
G|---------------------------------------------| 
D|---------------------------------------------| 
A|---0~------0-000-000-000------0~------0-0----| 
D|---0~------0-000-000-000------0~------0-0----| 
            . ... ... ...              . . 
(1:35 - 1:49) 
E|-------------------------------------------|------------|------------| 
B|-------------------------------------------|--Guitar-1--|--Guitar-2--| 
G|-------------------------------------------|------------|------------| 
D|-------------------------------------------|--8-8-8-8---|------------| (2x) 
A|-8--0~---0-0000--0-0000--0-0--0~---0-0000--|------------|----(ps)----| 
D|-8--0~---0-0000--0-0000--0-0--0~---0-0000--|--8-8-8-8---|------------| 
      .    . ....  . ....  . .  .    . .... 

(1:50 - 2:03) 
(guitarra 1) 
E|---------------------| 
B|---------------------| 
G|-7-----10----14------| 
D|---x8----x8----x16---| (2x) 
A|-5-----8-----12------| 
D|---------------------| 

(guitarra 2) 
E|----------------------------------------------------------------| 
B|----------------------------------------------------------------| 
G|----------------------------------------------------------------| 
D|----------------------------------------------------------------| (2x) 
A|-0--0-0-0-0-0-0-4-3-0-0-0-0-0-0-1-0-0-0-0-0-0-0-0-8-8-8-8-4-4-4-| 
D|-0--0-0-0-0-0-0-4-3-0-0-0-0-0-0-1-0-0-0-0-0-0-0-0-8-8-8-8-4-4-4-| 
      . . . . . .     . . . . . .     . . . . . . . 

(2:04 - 2:09) 
E|------------------------------------------------------| 
B|------------------------------------------------------| 
G|------------------------------------------------------| 
D|-----------------------------------------------5-5/8--| 
A|-0~--0~--000-000-0-0~---0~--0~--000-000-0-0~---3-3/6--| 
D|-0~--0~--000-000-0-0~---0~--0~--000-000-0-0~----------| 
	  

Search Paypal
auto scroll beats size up size down change color hide chords drawings
tab show chords e-chords YouTube Clip e-chords hide all tabs e-chords go to top tab