67 Special

Walking Away

67 Special

tabs

save to print version add songbook text version e-mail correct tuner
chordsukulelecavacokeyboardtabbassdrumsharmonicaflute Guitar Pro
close

there isn't a video lesson for this song

chords

Walking Away

	  		Notes: I'm looking forward to the release of 67 Specials album (July 31 release). 
Every single so far has been of high standard, & these guys are great live. Have 
fun playing along. Comments and corrections welcome. 
 
INTRO RIFF: 
E-|-------------------------------|---------------------------------|- 
B-|-------------------------------|---------------------------------|- 
G-|-------------------------------|---------------------------------|- 
D-|-5-5----5--------5-5-----5-5---|-3-3----3--------3-3-----3--0-0--|-x 2 
A-|-----5-----5---5------5------5-|-----5-----5---5------5----------|- 
E-|-------------------------------|---------------------------------|- 
 
1ST VERSE: 
E-|-------------|-     -|-------------|-------------|-------------|- 
B-|-------------|-     -|-------------|-------------|-------------|- 
G-|-5---7-------|-     -|-------------|-------------|-------------|- 
D-|---------5---|-x4   -|-5---7-------|-5---7-------|-7---5-------|- 
A-|-3---5-------|-     -|-3---5---5---|-3---5---5---|-5---3---5---|- 
E-|---------3---|-     -|---------3---|---------3---|---------3---|- 
 
CHORUS 
    D5            D5            D5  C#/D5 C5  G5      D5  C#/D5 C5  G5 
E-|-------------|-------------|---------------------|---------------------|- 
B-|-------------|-------------|---------------------|---------------------|- 
G-|-7--7--7--7--|-7--7--7--7--|-7-7-7-7-7-5-5-------|-7-7-7-7-7-5-5-------|- 
D-|-7--7--7--7--|-7--7--7--7--|-7-7-7-7-7-5-5-5-5-5-|-7-7-7-7-7-5-5-5-5-5-|- 
A-|-5--5--5--5--|-5--5--5--5--|-5-5-4-4-4-3-3-5-5-5-|-5-5-4-4-4-3-3-5-5-5-|- 
E-|-------------|-------------|---------------3-3-3-|---------------3-3-3-|- 
 
2ND VERSE: 
E-|-------------|-     -|-------------|-------------|-------------|- 
B-|-------------|-     -|-------------|-------------|-------------|- 
G-|-5---7-------|-     -|-------------|-------------|-------------|- 
D-|---------5---|-x4   -|-5---7-------|-5---7-------|-7---5-------|- 
A-|-3---5-------|-     -|-3---5---5---|-3---5---5---|-5---3---5---|- 
E-|---------3---|-     -|---------3---|---------3---|---------3---|- 
 
CHORUS 
    D5            D5            D5  C#/D5 C5  G5      D5  C#/D5 C5  G5 
E-|-------------|-------------|---------------------|---------------------|- 
B-|-------------|-------------|---------------------|---------------------|- 
G-|-7--7--7--7--|-7--7--7--7--|-7-7-7-7-7-5-5-------|-7-7-7-7-7-5-5-------|- 
D-|-7--7--7--7--|-7--7--7--7--|-7-7-7-7-7-5-5-5-5-5-|-7-7-7-7-7-5-5-5-5-5-|- 
A-|-5--5--5--5--|-5--5--5--5--|-5-5-4-4-4-3-3-5-5-5-|-5-5-4-4-4-3-3-5-5-5-|- 
E-|-------------|-------------|---------------3-3-3-|---------------3-3-3-|- 
 
BRIDGE:                            C5 
E-|------------8-8--|-     -|---------------------------------|- 
B-|-8--8--8----8-8--|-     -|-3-----------3---3---3---3-------|- 
G-|-8--8--8---------|-     -|-5b7~~~~-----5b7-5b7-5b7-5b7-etc-|- 
D-|-10-10-10--------|-x8   -|---------------------------------|- 
A-|-----------------|-     -|---------------------------------|- 
E-|-----------------|-     -|---------------------------------|- 
 
3RD VERSE: 
E-|-------------|-     -|-------------|-------------|-------------|- 
B-|-------------|-     -|-------------|-------------|-------------|- 
G-|-5---7-------|-     -|-------------|-------------|-------------|- 
D-|---------5---|-x2   -|-5---7-------|-5---7-------|-7---5-------|- 
A-|-3---5-------|-     -|-3---5---5---|-3---5---5---|-5---3---5---|- 
E-|---------3---|-     -|---------3---|---------3---|---------3---|- 
 
CHORUS 
    D5            D5            D5  C#/D5 C5  G5      D5  C#/D5 C5  G5 
E-|-------------|-------------|---------------------|---------------------|- 
B-|-------------|-------------|---------------------|---------------------|- 
G-|-7--7--7--7--|-7--7--7--7--|-7-7-7-7-7-5-5-------|-7-7-7-7-7-5-5-------|- 
D-|-7--7--7--7--|-7--7--7--7--|-7-7-7-7-7-5-5-5-5-5-|-7-7-7-7-7-5-5-5-5-5-|-x 2 
A-|-5--5--5--5--|-5--5--5--5--|-5-5-4-4-4-3-3-5-5-5-|-5-5-4-4-4-3-3-5-5-5-|- 
E-|-------------|-------------|---------------3-3-3-|---------------3-3-3-|- 
 
OUTRO RIFF: 
E-|-------------------------------|---------------------------------|- 
B-|-------------------------------|---------------------------------|- 
G-|-------------------------------|---------------------------------|- 
D-|-5-5----5--------5-5-----5-5---|-3-3----3--------3-3-----3--0-0--|- 
A-|-----5-----5---5------5------5-|-----5-----5---5------5----------|- 
E-|-------------------------------|---------------------------------|- 
 
 

		  

See also:

tabs INXS - Heaven Sent tabs The Beautiful Girls - Freedom (part 2) tabs Joss Stone - Fell in love with a boy tabs You Am I - Please don`t ask me to smile tabs The Angels - Am I Ever Gonna See Your Face Again tabs Behind Crimson Eyes - This Is The End
e-chords

Other versions:

tabs 67 Special - Walking Away tabs Underoath - Walking Away tabs Smile Empty Soul - Walking Away
auto scroll beats size up size down change color hide chords drawings
tab show chords e-chords YouTube Clip e-chords hide all tabs e-chords go to top tab

share