50 cent

candy shop

50 cent

tabs Beginner beginner

by  ARILOPES_7

save to print version add songbook text version e-mail correct tuner
chordsukulelecavacokeyboardtabbassdrumsharmonicaflute Guitar Pro
close

there isn't a video lesson for this song

chords

candy shop

	  		e|---2-2---2/3----------------------| 
b|----------------------------------| 
g|----------------------------------| 
d|----------------------------------| 
a|----------------------------------| 
e|----------------------------------| 
 
e|---2-2---2/3----------------------| 
b|----------------------------------| 
g|----------------------------------| 
d|----------------------------------| 
a|----------------------------------| 
e|----------------------------------| 
 
e|---2-2---2/3----------------------| 
b|----------------------------------| 
g|----------------------------------| 
d|----------------------------------| 
a|----------------------------------| 
e|----------------------------------| 
 
e|-0-2-3-5-2------------------------| 
b|----------------------------------| 
g|----------------------------------| 
d|----------------------------------| 
a|----------------------------------| 
e|----------------------------------| 

		  

auto scroll beats size up size down change color hide chords drawings
tab show chords e-chords YouTube Clip e-chords hide all tabs e-chords go to top tab

share