4 Non Blondes

What's Up

4 Non Blondes

tabs Advanced advanced

by  ACELOT

save to print version add songbook text version e-mail correct tuner
chordsukulelecavacokeyboardtabbassdrumsharmonicaflute Guitar Pro
close
whats-up-by-4-non-blondes

there is a video lesson for this song

chords

What's Up

(Linda Perry)

	  		
Intro: A Bm D  

e|--------------------------------------------------------------|  
B|------------------------------------------7---5b--------------|  
G|-/9-9-9-9---------------2-------2---2~~---7---5b-5b-----------|  
D|----------7--7-7\-4-2h4---4-2-4---4-----7---7------7~---------|  
A|------------------------------------------------------5-7-5-7-|  
E|--------------------------------------------------------------|  

verse 1:   

e|----------------------------------------------------|  
B|----------------------------------------------------|  
G|---------------2-------2---2~~------2---2-----------|  
D|-7~~7-7\-4-2h4---4-2-4---4------2h4---4-------------|  
A|--------------------------------------------5-7-5-7-|  
E|----------------------------------------------------|  

Pre-Chorus A5 B5 D5  

e|-----------------------------------|  
B|------------3-------------7--------|  
G|-2-----4------4------7--7---7\---2-|  
D|-2-----4--------2p0--7-----------2-|  
A|-0-----2-------------5-----------0-|  
E|-----------------------------------|  

Chorus: A B D  

Solo:  

e|-------------------------------------------------------|  
B|----------------------------------7---5-5b-------------|  
G|----------------2-------2---2~----7---5-5b-------------|  
D|-7~--7-7\-4-2h4---4-2h4---4-----7---7-------7~---------|  
A|-----------------------------------------------5-7-5-7-|  
E|-------------------------------------------------------|  

verse 2:  

e|----------------------------------------------------|  
B|----------------------------------------------------|  
G|---------------2-------2---2~~------2---2~~---------|  
D|-7~~7-7\-4-2h4---4-2h4---4------2h4---4-------------|  
A|--------------------------------------------5-7-5-7-|  
E|----------------------------------------------------|  

e|----------------------------------------------------|  
B|----------------------------------------------------|  
G|---------------2-------2---2~~------2---2~~--2------|  
D|-7~~7-7\-4-2h4---4-2h4---4------2h4---4------2------|  
A|---------------------------------------------0------|  
E|----------------------------------------------------|  

Pre-Chorus 2: A5 B5 D5  


e|---------------------------------------------------|  
B|-----2-----------3------------7------------3p2-----|  
G|-2-----2----4------4----7---7---7----2---2-----2---|  
D|-2-------2--4--------4--7---------7\-2-----------2-|  
A|-0----------2-----------5------------0-------------|  
E|---------------------------------------------------|  

e|--------------------------------------------------------------|  
B|-----2----------3/5-3---------7------------17----------14-----|  
G|-2-----2----4---2/4-2----7--7---7-----2----16b18r16-14-16b18--|  
D|-2-------2--4------------7--------7/--2-----------------------|  
A|-0----------4------------5------------0-----------------------|  
E|--------------------------------------------------------------|  

Chorus: A B D  

e|-----------------|  
B|---------------2-|  
G|-----7--7------2-|  
D|-----7--7------2-|  
A|-7/9------9\---0-|  
E|-----------------|  

End: A Bm D D4 D D9 A  

e|--------------------------------------------------------------|  
B|------------------------------------------7---5b--------------|  
G|-/9-9-9-9---------------2-------2---2~~---7---5b-5b-----------|  
D|----------7--7-7\-4-2h4---4-2-4---4-----7---7------7~---------|  
A|------------------------------------------------------5-7-5-7-|  
E|--------------------------------------------------------------|  

		  

Full key step upFull key step up
Half key step upHalf key step up
Half key step downHalf key step down
Full key step downFull key step down
auto scroll beats size up size down change color hide chords drawings
tab show chords e-chords YouTube Clip e-chords hide all tabs e-chords go to top tab

share