38 Special

home > 38 Special

Caught Up In You Tab

38 Special

Difficulty: AdvancedAdvanced

by Nick+D

tuner correct add songbook print version text version save to e-mail
chordsukulelecavacokeyboardtabbassdrumsharmonicsflute Guitar Pro
chords

Caught Up In You

  		No Bass in Intro 

Verse 2X        2X  
G-------------|------| 
D-------------|------| 
A-7-6-4-2-0-42|-0-4-2| 
E-------------|------| 


Pre Chorus 
G----------| 
D----------| 
A-----0-1-2|bunch of 2s 
E-2-4------| 


Chorus 1 3X 
G--------| 
D--------| 
A--------| 
E-5-4-0-2| 


Chorus 2 
G--------------| 
D--------------| 
A---------0-1-2|bunch of 2s 
E-5-4-2-4------| 


Verse 2X        2X  
G-------------|------| 
D-------------|------| 
A-7-6-4-2-0-42|-0-4-2| 
E-------------|------| 


Pre Chorus 
G----------| 
D----------| 
A-----0-1-2|bunch of 2s 
E-2-4------| 


Chorus 1 3X 
G--------| 
D--------| 
A--------| 
E-5-4-0-2| 


Chorus 2 
G--------------| 
D--------------| 
A---------0-1-2|bunch of 2s 
E-5-4-2-4------| 


Interlude 
G|-|-|-|-|-|-|-| 
D|-|-|-|1|-|-|-| 
A|4|4|2|-|4|4|2|Bunch of 2s 
E|-|-|-|-|-|-|-| 


Bridge 
G----------------------| 
D----------------------| 
A-4-----432-76-4----432|bunch of 2s 
E---432----------432---| 

Solo 
G--------| 
D--------| 
A--------| 
E-5-4-0-2| 



G--------------| 
D--------------| 
A---------0-1-2|bunch of 2s 
E-5-4-2-4------| 



G--------| 
D--------| 
A--------| 
E-5-4-0-2| 



G--------------| 
D--------------| 
A---------0-1-2|bunch of 2s 
E-5-4-2-4------| 

Bridge 
G----------------------| 
D----------------------| 
A-4-----432-76-4----432|bunch of 2s 
E---432----------432---| 


Chorus 1 3X 
G--------| 
D--------| 
A--------| 
E-5-4-0-2| 


Chorus 2 
G--------------| 
D--------------| 
A---------0-1-2|bunch of 2s 
E-5-4-2-4------| 


Chorus 1 3X 
G--------| 
D--------| 
A--------| 
E-5-4-0-2| 


Chorus 2 
G--------------| 
D--------------| 
A---------0-1-2|bunch of 2s 
E-5-4-2-4------| 
=============================================================================== 

	  

Search Paypal
auto scroll beats size up size down change color hide chords drawings
tab show chords e-chords YouTube Clip e-chords hide all tabs e-chords go to top tab