311

Count Me In

311

tabs

by  TAMAMOREIRA

save to print version add songbook text version e-mail correct tuner
chordsukulelecavacokeyboardtabbassdrumsharmonicaflute Guitar Pro
close

there isn't a video lesson for this song

chords

Count Me In

	  		
Intro 

GuitAr 1 - x4 
e|--------------------------------------------------| 
B|--------------------------------------------------| 
G|-------------------------7~x----------------------| 
D|-2~x---------------------7~x----------------------| 
A|-2~x---------5-5-5-5-5-5-5~x----------------------| 
E|-0~x-----5h7-------------5~x-----5h7-7-7-7-7-7-7--| 

GuitAr 2 
e|----------------12---------------------------------| 
B|-------9h10-12-----12-9-7-----------7-9-10-9-------| 
G|-9~x------------------------7---7h9-----------9~x--| 
D|---------------------------------------------------| 
A|---------------------------------------------------| 
E|---------------------------------------------------| 

e|---------------------------------------------| 
B|-------9----------------7h8r7---7--7h8r7---7-| 
G|-9h11-----11---9--7~x--------9----------9----| 
D|---------------------------------------------| 
A|---------------------------------------------| 
E|---------------------------------------------| 

Verse 
e|-10-----------10--10-----------------10----------------| 
B|-----10--------------10----------12------12--12--------| 
G|----------11-------------11--12-----------------12--12-| 
D|-------------------------------------------------------| 
A|-------------------------------------------------------| 
E|-------------------------------------------------------| 

(first time only on thAt lAst pArt) 
e|-----9--12---9--9------------------------------9-12-9~-| 
B|-10---------------10/--------------------10-12---------| 
G|-----------------------------------9-11----------------| 
D|------------------------------9-11---------------------| 
A|-------------------------9-12--------------------------| 
E|-------------------------------------------------------| 

Pre-Chorus
e|-------------------------------------------------| 
B|-------------------------------------------------| 
G|-------------------------------------------------| 
D|-------------------------------------------------| 
A|-7-7-7-7--7--4-4-4-4--4--2-2-2-2--2--2-2-2-2--2--| 
E|-5-5-5-5--5--2-2-2-2--2--0-0-0-0--0--0-0-0-0--0--| 

Chorus
 
e|-x-x-5-5-x-x-5-5-x-x-----x-x-----x-x-----x-x-----x-x-7-7-x-x-7-7-| 
B|-x-x-5-5-x-x-5-5-x-x-7-7-x-x-7-7-x-x-9-9-x-x-9-9-x-x-9-9-x-x-9-9-| 
G|-x-x-6-6-x-x-6-6-x-x-7-7-x-x-7-7-x-x-9-9-x-x-9-9-x-x-9-9-x-x-9-9-| 
D|-x-x-7-7-x-x-7-7-x-x-7-7-x-x-7-7-x-x-9-9-x-x-9-9-x-x-9-9-x-x-9-9-| 
A|-----------------------------------------------------------------| 
E|-----------------------------------------------------------------| 

e|-x-x-5-5-x-x-5-5-x-x-----x-x-----------------------------| 
B|-x-x-5-5-x-x-5-5-x-x-7-7-x-x-7-7-------------------------| 
G|-x-x-6-6-x-x-6-6-x-x-7-7-x-x-7-7-------------9-9-9-9-9-9-| 
D|-x-x-7-7-x-x-7-7-x-x-7-7-x-x-7-7-9-9-9-9-9-9-9-9-9-9-9-9-| 
A|---------------------------------7-7-7-7-7-7-7-7-7-7-7-7-| 
E|---------------------------------0-0-0-0-0-0-0-0-0-0-0-0-| 

BriDGe
 
e|--------------------------------------------------| 
B|--------------------------------------------------| 
G|-------------------------7~x----------------------| 
D|-2~x---------------------7~x----------------------| 
A|-2~x---------5-5-5-5-5-5-5~x----------------------| 
E|-0~x-----5h7-------------5~x-----5h7-7-7-7-7-7-7--| 
		  

See also:

tabs Ben Harper - Diamonds on inside tabs Red Hot Chili Peppers - Scar Tissue (ver. 2) tabs Red Hot Chili Peppers - The Zephyr Song tabs Red Hot Chili Peppers - I Could Die For You tabs Red Hot Chili Peppers - Give It Away tabs Red Hot Chili Peppers - Scar Tissue
e-chords

Other versions:

tabs 311 - Count Me In
auto scroll beats size up size down change color hide chords drawings
tab show chords e-chords YouTube Clip e-chords hide all tabs e-chords go to top tab

share