Poison Idea

Brigandage

Poison Idea

keyboards

by  RENEJUNIOR

save to print version add songbook text version e-mail correct tuner
chordsukulelecavacokeyboardtabbassdrumsharmonicaflute Guitar Pro
close

there isn't a video lesson for this song

chords

Brigandage

	  		G|-----------------------------------------------------------------------------| 
D|-----------------------------------------------------------------------------| 
A|-5--3-3-5--3-3-5--3-3-5--3-5--------5--3-3-5--3-3-5--3-3-5--3-5--5--5--5--5--| x4 
E|------------------------------2--2-------------------------------------------| 

G|------------------------------| 
D|------------------------------| 
A|-5-3--5-5-5-5-5-5-5-5-5-5-5-5-| 
E|------------------------------| 

G|--------------------------------------------------------| 
D|-----4-5--5-5-5-5-4------------5-4----------------------| 
A|-7-7----------------7-5--5-5-5-----7-5--5-5-5-5-5-5-5-5-| 1 
E|--------------------------------------------------------| 

G|-------------------------------------------------------| 
D|-----4-5--5-5-5-5-4------------5-4---------------------| 
A|-7-7----------------7-5--5-5-5-----7-5--5-5--5-5--5-5--| 2,3 
E|-------------------------------------------------------| 

G|-------------------------------------------------------------------| 
D|-----4-5--5-5-5-5-4------------5-4----------------5--5-5-5-5-5-5-5-| 
A|-7-7----------------7-5--5-5-5-----7-7--7-7-7-7-7------------------| 4 
E|-------------------------------------------------------------------| 

G|-----------------------------------------------------------------------------| 
D|-----------------------------------------------------------------------------| 
A|-----------------------------------------------------------------5--5--5--5--| 
E|------------------------------2--2-------------------------------------------| 

G|-----------------------------------------------------------------------------| 
D|-----------------------------------------------------------------------------| 
A|-5--3-3-5--3-3-5--3-3-5--3-5--------5--3-3-5--3-3-5--3-3-5--3-5--5--5--5--5--| x3 
E|------------------------------2--2-------------------------------------------| 

G|------------------------------| 
D|------------------------------| 
A|-5-3--5-5-5-5-5-5-5-5-5-5-5-5-| 
E|------------------------------| 

G|--------------------------------------------------------| 
D|-----4-5--5-5-5-5-4------------5-4----------------------| 
A|-7-7----------------7-5--5-5-5-----7-5--5-5-5-5-5-5-5-5-| 1 
E|--------------------------------------------------------| 

G|-------------------------------------------------------| 
D|-----4-5--5-5-5-5-4------------5-4---------------------| 
A|-7-7----------------7-5--5-5-5-----7-5--5-5--5-5--5-5--| 2,3 
E|-------------------------------------------------------| 

G|-------------------------------------------------------------------| 
D|-----4-5--5-5-5-5-4------------5-4----------------5--5-5-5-5-x-x-x-| 
A|-7-7----------------7-5--5-5-5-----7-7--7-7-7-7-7------------------| 4 
E|-------------------------------------------------------------------| 

G|----------------------------------------------------------| 
D|-------------------------------------------5--5-5-5-5--5--| 
A|-7--7-7-7-7-7-7-7-7-7-7-7-5-5-7--7-7-7-7-7----------------| x4 
E|----------------------------------------------------------| 

G|--------------------------------| 
D|--------------------------------| 
A|-5--5-5-5-5-5-5-5-5-5-5-5-5-5-5-| 
E|--------------------------------| 

G|-----------------------------------------------------------------------------| 
D|-----------------------------------------------------------------------------| 
A|-5--3-3-5--3-3-5--3-3-5--3-5--------5--3-3-5--3-3-5--3-3-5--3-5--5--5--5--5--| x3 
E|------------------------------2--2-------------------------------------------| 

G|--------------------------------------------------------------------------------------------------------| 
D|--------------------------------------------------------------------------------------------------------| 
A|-5--3-3-5--3-3-5--3-3-5--3-5--------5--3-3-5--3-3-5--3-3-5--3-5--5--5--5--5--5--5--5-5-5-5--------------| 
E|------------------------------2--2---------------------------------------------------------3-(Let ring)-| 

Slow down at the end - listen to the song. 

************************************ 

| x   Dead note 

************************************ 
		  

auto scroll beats size up size down change color columns
tab show chords e-chords YouTube Clip e-chords hide all tabs e-chords go to top tab

share