Maroon 5

home > Maroon 5

Closer Keyboard

Maroon 5

Difficulty: nolevelnolevel

by gustsilva

tuner correct add songbook print version text version save to e-mail
chordsukulelecavacokeyboardtabbassdrumsharmonicsflute Guitar Pro
chords

Closer

  		
Intro: (drum) 

"This is one of the best songs ever writen" -Adam Levine 

Intro: (Guitar) 
 

 

you let me desicrate you 
you let me complicate you 
you let me penetrate you 

Help me,  torn apart my insides 
Help me,  I got no soul to sell 
Help me,  you're the thing that works for me 
Help me get away from myself 

Chorus: 

"I wanna fuck you like an animal" 
(Chords)  F  Bb  B 

I wanna feel you from the inside 
I wanna fuck you like an animal 
my whole existance is flawed 
you bring me closer to god 

Turnaround: 

(fast picking)-the octives are in () 
 

 

Second Verse: 

You cant help my issolation 
YOu cant help the hate that it brings 
you cant help my absense of faith 
you cant help my everything 

help me,  turn on my reason 
help me,  your sex i can smell 
help me,  you make me perfect yeah 
help me think i'm somebody else 

Chorus: F Bb B 

I wanna fuck you like an animal 
I wanna feel you from the inside 
I wanna fuck you like an animal 
my whole existance is flawed 
you bring me closer to god 

Turnaround: 
(fast picking)-the octives are in () 
 

 

                (guitar 1) 
 
e|--------------|---------------------------------------------| 
b--------------|----10/13-13--10/13-13---10/13-13---10/13-13-| 
g--------------|----10/12-12--10/12-12---10/12-12---10/12-12-| 
d--------------|---------------------------------------------| 
a-6-6-6-8------|---------------------------------------------| 
E|--------------|---------------------------------------------| 
 

              (guitar 2) 
 
e|------------|-------------------------------------------------| 
b------------|-------------------------------------------------| 
g------------|-------------------------------------------------| 
d------------|-------------------------------------------------| 
a-6-6-6-8----|--10-8--7--8--10-8--7--8--10-8--7--8--10-8--7--8-| 
E|------------|--8--6--5--6--8--6--5--6--8--6--5--6--8--6--5--6-| 
 

 
e|----------------------------------------------------------------) 
b------------                                      b-------------) 
g------------                                      g-------------) 
d------------  (mix last two with guitar 1 holding d-8-8-8-8-8---) 
a-6-6-6-8----                                      a-------------) 
E|----------------------------------------------------------------) 
 

jam: 

(guitar 1) 
 
e|----------------------| 
b-------------------4--| 
g--5-3-5--3-3-5--3-5---| (guitar 1 continues until end) 
d----------------------| 
a----------------------| 
E|----------------------| 
 

(guitar 2) 
 
e|-------------------------| 
b-------------------------| 
g-------------------------|(repeats 4 times) 
d--------------------1----| 
a--3-1-3--1-1-3--1-3------| 
E|-------------------------| 
 

(fast picking: guitar 2) 

 
e|-15------13-----13-----12----11----10------------------| 
b-13------11-----11-----10----9-----8-----11-11--10--13-| 
g-12------10-----10-----9-----8-----7-----10-10--9---12-| 
d-----------------------------------------8--8---7---10-| 
a-------------------------------------------------------| 
E|-------------------------------------------------------| 
 

end: (piano/guitar) 

e|---------------------------------| 
b-20-18--18-17--16-15-------------| 
g---------------------15-15-14-17-| 
d---------------------------------| 
a---------------------------------| 
E|---------------------------------| 
	  

Full key step upFull key step up
Half key step upHalf key step up
Half key step downHalf key step down
Full key step downFull key step down
Search Paypal
auto scroll beats size up size down change color columns
tab show chords e-chords YouTube Clip e-chords hide all tabs e-chords go to top tab