KHIGH

Pretty Baby Keyboard

KHIGH

Difficulty: nolevelnolevel

by alanismetal

tuner correct add songbook print version text version save to e-mail
chordsukuleleukulelecavacokeyboardtabbassdrumsharmonicsflute Guitar Pro
close

there isn't a video lesson for this song

request
chords

Pretty Baby

  		Intro Guitar riff alone, last part of the riff, bass kicks in 



F|------| 

C|------| 

G|------| 

D|-3--0-| 





Verse I (2x) 



F|-------------------|-------------------|-------------------|------------------ 

C|-------------------|-------------------|-------------------|------------------ 

G|-------------------|-------------------|-------------------|------------------ 

D|-0--0-0-0-0--0-0-0-|-0--0-0-0-0--0-0-0-|-0--0-0-0-0--0-0-0-|-0--0-0-0-0--0-0-0 



"Hey pretty baby"... 



F|----------------------------| 

C|----------------------------| 

G|----------------------------| 

D|-3-3-3-3--3-3-3--5-5-5-5-5--| 





Pre-Chorus I 



F|---------------------------------|---------------------------------| 

C|---------------------------------|---------------------------------| 

G|----------2----------7-5---------|----------2----------7-5---------| 

D|-0-3-0--0----0-3-0-------7-6-5-3-|-0-3-0--0----0-3-0-------7-6-5-3-| 



"Always trying to find"... 



F|---------------------------------|---------------------------------| 

C|---------------------------------|---------------------------------| 

G|----------2----------7-5---------|----------2------------5---5-----| 

D|-0-3-0--0----0-3-0-------7-6-5-3-|-0-3-0--0----0---3---3-----------| 





Chorus I (1x first time) to Guitar riff alone 



F|--------------------------------------|--------------------------------------- 

C|--------------------------------------|--------------------------------------- 

G|--------------------------------------|--------------------------------------- 

D|-0--0-0-0-0--0-0-0--3-3-3--5-5--5-5-5-|-0--0-0-0-0--0-0-0--3-3-3--5-5--5-5-5-0 



"I never hated"... 





Verse II (2x) 



F|-------------------|-------------------|-------------------|------------------ 

C|-------------------|-------------------|-------------------|------------------ 

G|-------------------|-------------------|-------------------|------------------ 

D|-0--0-0-0-0--0-0-0-|-0--0-0-0-0--0-0-0-|-0--0-0-0-0--0-0-0-|-0--0-0-0-0--0-0-0 



"Hey pretty baby"... 



F|----------------------------| 

C|----------------------------| 

G|----------------------------| 

D|-3-3-3-3--3-3-3--5-5-5-5-5--| 





Pre-Chorus II 



F|---------------------------------|---------------------------------| 

C|---------------------------------|---------------------------------| 

G|----------2----------7-5---------|----------2----------7-5---------| 

D|-0-3-0--0----0-3-0-------7-6-5-3-|-0-3-0--0----0-3-0-------7-6-5-3-| 



"Always quick to see"... 



F|---------------------------------|---------------------------------| 

C|---------------------------------|---------------------------------| 

G|----------2----------7-5---------|----------2------------5---5-----| 

D|-0-3-0--0----0-3-0-------7-6-5-3-|-0-3-0--0----0---3---3-----------| 





Chorus II (2x) 



F|--------------------------------------|--------------------------------------| 

C|--------------------------------------|--------------------------------------| 

G|--------------------------------------|--------------------------------------| 

D|-0--0-0-0-0--0-0-0--3-3-3--5-5--5-5-5-|-0--0-0-0-0--0-0-0--3-3-3--5-5--5-5-5-| 



"I never hated"... 





Change I 



F|--------------------------| 

C|--------------------------| 

G|-2---2---2-0-------0-0-0--| 

D|-------------3-3-3--------| (4x) 



"I take you"... 





Change Chorus to Guitar riff alone 



F|--------------------------------------|--------------------------------------| 

C|--------------------------------------|--------------------------------------| 

G|----7-7-7-7--7-7-5-3--3-3-------------|----7-7-7-7--7-7-5-3--3-3-------------| 

D|-0-------------------------3-3--3-3-5-|-0-------------------------3-3--3-3-5-| 



"It's time to pay"... 



F|--------------------------------------|--------------------------------------- 

C|--------------------------------------|--------------------------------------- 

G|----7-7-7-7--7-7-5-3--3-3-------------|----7-7-7-7--7-7-5-3--3-3-------------- 

D|-0-------------------------3-3--3-3-5-|-0-------------------------3-3--3-3-5-0 





Solo 



F|-----------------| 

C|-----------------| 

G|-----------------| 

D|-2-2-2-2-2-2-2-2-| 



F|--------------------------------------|--------------------------------------| 

C|--------------------------------------|--------------------------------------| 

G|--------------------------------------|--------------------------------------| 

D|-0--0-0-0-0--0-0-0--3-3-3--5-5--5-5-5-|-0--0-0-0-0--0-0-0--3-3-3--5-5--5-5-5-| 



F|--------------------------------------|--------------------------------------0 

C|--------------------------------------|--------------------------------------0 

G|--------------------------------------|--------------------------------------0 

D|-0--0-0-0-0--0-0-0--3-3-3--5-5--5-5-5-|-0--0-0-0-0--0-0-0--3-3-3--5-5--5-5-5-0 





Intro Guitar riff alone, last part of the riff, bass kicks in 



F|------| 

C|------| 

G|------| 

D|-3--0-| 





Verse III (2x) 



F|-------------------|-------------------|-------------------|------------------ 

C|-------------------|-------------------|-------------------|------------------ 

G|-------------------|-------------------|-------------------|------------------ 

D|-0--0-0-0-0--0-0-0-|-0--0-0-0-0--0-0-0-|-0--0-0-0-0--0-0-0-|-0--0-0-0-0--0-0-0 



"Hey pretty baby"... 



F|----------------------------| 

C|----------------------------| 

G|----------------------------| 

D|-3-3-3-3--3-3-3--5-5-5-5-5--| 





Pre-Chorus III 



F|---------------------------------|---------------------------------| 

C|---------------------------------|---------------------------------| 

G|----------2----------7-5---------|----------2----------7-5---------| 

D|-0-3-0--0----0-3-0-------7-6-5-3-|-0-3-0--0----0-3-0-------7-6-5-3-| 



"Always the same story"... 



F|---------------------------------|---------------------------------| 

C|---------------------------------|---------------------------------| 

G|----------2----------7-5---------|----------2------------5---5-----| 

D|-0-3-0--0----0-3-0-------7-6-5-3-|-0-3-0--0----0---3---3-----------| 





Chorus III (2x) 



F|--------------------------------------|--------------------------------------| 

C|--------------------------------------|--------------------------------------| 

G|--------------------------------------|--------------------------------------| 

D|-0--0-0-0-0--0-0-0--3-3-3--5-5--5-5-5-|-0--0-0-0-0--0-0-0--3-3-3--5-5--5-5-5-| 



"I never hated"... 





Change Chorus to Guitar riff alone 



F|--------------------------------------|--------------------------------------| 

C|--------------------------------------|--------------------------------------| 

G|----7-7-7-7--7-7-5-3--3-3-------------|----7-7-7-7--7-7-5-3--3-3-------------| 

D|-0-------------------------3-3--3-3-5-|-0-------------------------3-3--3-3-5-| 



"It's time to pay"... 



F|--------------------------------------|--------------------------------------- 

C|--------------------------------------|--------------------------------------- 

G|----7-7-7-7--7-7-5-3--3-3-------------|----7-7-7-7--7-7-5-3--3-3-------------- 

D|-0-------------------------3-3--3-3-5-|-0-------------------------3-3--3-3-5-0 





Outro Guitar riff alone, last part of the riff, bass kicks in to end 



F|------| 

C|------| 

G|------| 

D|-3--0-| 
	  

Search Paypal
auto scroll beats size up size down change color columns
tab show chords e-chords YouTube Clip e-chords hide all tabs e-chords go to top tab

share with facebook