John Powell

home > John Powell

Forbidden Friendship Keyboard

John Powell

Difficulty: IntermediateIntermediate

by aleffederico

tuner correct add songbook print version text version save to e-mail
chordsukulelecavacokeyboardtabbassdrumsharmonicsflute Guitar Pro
chords

Forbidden Friendship

  		



Track 1:  

E|-------------|-------------------------------------|---------------------------------| 
B|-------------|-----------------1---------------1---|-------------1---------------1---| 
G|-------------|-------------0-------0-------0-------|-0-------0-------0-------0-------| 
D|-------------|-------------------------------------|---------------------------------| 
A|--------3----|-----3-------------------3-----------|-----3---------------3-----------| 
E|-------------|-------------------------------------|---------------------------------| 


E|---------------------------------|---------------------------------|------------------------| 
B|-------------1---------------1---|-------------1---------------1---|------------------------| 
G|-0-------0-------0-------0-------|-0-------0-------0-------0-------|-0---5------------------| 
D|---------------------------------|---------------------------------|-----5------------------| 
A|-----3---------------3-----------|-----3---------------3-----------|-----3----3----3----3---| 
E|---------------------------------|---------------------------------|------------------------| 


E|------------------------|------------------------|---------------------------------| 
B|------------------------|------------------------|-------------1---------------1---| 
G|-----4------------------|-----2---------0--------|---------0-------0-------0-------| 
D|-----5------------------|-----5------------------|---------------------------------| 
A|-----3----3----3----3---|-----3----3----3----3---|-----3-------3-------3-------3---| 
E|------------------------|------------------------|---------------------------------| 


E|--------------------|--------------------|-----------------| 
B|-----1-----1----3---|-----0-----0----1---|-----------------| 
G|-0---0-----0--------|-----0-----0--------|-----2-----0-----| 
D|--------------------|--------------------|-----3-----------| 
A|-----3--------------|-----2--------------|-----------------| 
E|-----3--------------|-----3--------------|-----1-----0-----| 

|----------------|---------------------------------| 
|----------------|-------------1---------------1---| 
|-----0----------|---------0-------0-------0-------| 
|-----2----------|---------------------------------| 
|----------------|-----3---------------3-----------| 
|-----3----------|---------------------------------| 



E|---------------------------------|--------------------|--------------------|-----------------| 
B|-------------1---------------1---|-----1-----1----3---|-----0-----0----1---|-----------------| 
G|-0-------0-------0-------0-------|-0---0-----0--------|-----0-----0--------|-----2-----0-----| 
D|---------------------------------|--------------------|--------------------|-----3-----------| 
A|-----3---------------3-----------|-----3--------------|-----2--------------|-----------------| 
E|---------------------------------|-----3--------------|-----3--------------|-----1-----0-----| 


E|----------------|---------------------------------|---------------------------------| 
B|----------------|-------------1---------------1---|-------------1---------------1---| 
G|-----0----------|---------0-------0-------0-------|-0-------0-------0-------0-------| 
D|-----2----------|---------------------------------|---------------------------------| 
A|----------------|-----3---------------3-----------|-----3---------------3-----------| 
E|-----3----------|---------------------------------|---------------------------------| 


E|---------------------------------|---------------------------------|---------------------------------| 
B|---------------------------------|---------------------------------|---------------------------------| 
G|-0---2---------------------------|---------------------------------|-----2---------------------------| 
D|-----2---------------------------|---------------------------------|-----3---------------------------| 
A|-----0-------0-------3-------0---|-------------0-------3-------0---|---------------------------------| 
E|---------0-------0-------0-------|-0-------0-------0-------0-------|-0-----------1---------------1---| 


E|---------------------------------|---------------------3-----------|---------------------1-----------| 
B|---------------------------------|-------------3-------------------|-----3-------3-------------------| 
G|-----2---------------2-----------|-----0---------------------------|---------------------------------| 
D|-----3---------------------------|-----0---------------------------|---------------------------------| 
A|---------------------------------|---------------------------------|---------------------------------| 
E|-------------1---------------1---|-------------3-------3-------3---|-----3-------3-------3-------3---| 


E|---------------------------------|---------------------------------|---------------------------------| 
B|-----5-------3-------3-----------|---------------------0-------3---|---------------------1-------3---| 
G|---------------------------------|-------------0-------------------|-----0---------------0-----------| 
D|---------------------------------|---------------------------------|---------------------------------| 
A|---------------------------------|---------------------2-----------|-----3-------3---------------3---| 
E|-------------3---------------3---|-------------3---------------3---|---------3-------3-------3-------| 


E|---------------------------------|---------------------------------|---------------------------------| 
B|-----0---------------0-----------|---------------------------------|---------------------------------| 
G|-----0---------------0-------5---|-----2---------------0-----------|---------------------------------| 
D|---------------------------------|---------------------------------|-----0---------------------------| 
A|-------------3---------------3---|-----3-------3-------3-------3---|-----------------------------3---| 
E|-3-------3-------3-------3-------|-3-------3-------3-------3-------|-3---1---1---1---1---1---1---1---| 


E|---------------------------------|---------------------------------|---------------------------------| 
B|---------------------------------|---------------------------------|---------------------------------| 
G|---------------------------------|---------------------------------|---------------------------------| 
D|---------------------------------|-----------------------------2---|-----0---------------0-----------| 
A|-----3-------0-------3-------0---|-----3-------0-------3-----------|-------------0---------------0---| 
E|-1-------1---1---1---1---1---1---|-1-------0---0---0---0---0---0---|-0---2---2---2---2---2---2---2---| 


E|---------------------------------|---------------------------------|---------------------------------| 
B|---------------------------------|---------------------------------|---------------------------------| 
G|---------------------------------|---------------------------------|---------------------------------| 
D|-----0---------------0-----------|-----0---------------0-----------|---------------------------------| 
A|-------------0---------------0---|-------------1---------------3---|-----3-------0-------3-------0---| 
E|-2---2---2---2---2---2---2---2---|-2---1---1---1---1---1---1---1---|-1-------1---1---1---1---1---1---| 


E|---------------------------------|---------0---5---0---------------|-----0-------0-------0-------0---| 
B|---------------------------------|-----2---------------2-----------|---------2-------2-------2-------| 
G|---------------------------------|-----2-------------------2-------|-2-------------------------------| 
D|-----0---------------2-------0---|-----------------------------2---|---------------------------------| 
A|-----1---------------------------|---------------------------------|---------------------------------| 
E|-1-------3---3---3---3---3-------|-----0---------------------------|---------------------------------| 


E|-----0-------0-------0-------9---|-5-------------------------------| 
B|-2-------2-------2-------2---5---|-3---3---3---3---3---3---3---3---| 
G|---------------------2-----------|-----2---------------------------| 
D|-------------2-------------------|---------------------------------| 
A|-----------------------------0---|-----5---------------------------| 
E|---------------------------------|---------------------------------| 

|---------2---------2-----------------| 
|-3---3---------3---------3---3---3---| 
|-------------------------------------| 
|-------------------------------------| 
|-------------------------------------| 
|-------------------------------------| 



E|---------------------------------|---------------------------------|---------------------------------| 
B|-3---7---------------------------|---------------------------------|-----0---------------------------| 
G|-----5---------------------------|---------------------------------|-------------2-------2-------0---| 
D|---------------------------------|---------------------------------|---------------------------------| 
A|---------------------------------|---------------------------------|---------------------------------| 
E|-------------2-------2-------2---|-------------2---------------2---|-------------2---------------0---| 


E|---------------------------------|---------------------------------|---------------------5-----------| 
B|---------------------------------|---------------------------------|---------------------------------| 
G|-----0---------------------------|-----4---------------------------|---------------------------------| 
D|-------------4-------2-------0---|---------------------------------|---------------------------------| 
A|-------------0---------------0---|-----2---------------------------|---------------------------------| 
E|---------2-------2-------2-------|-2-----------2---------------2---|-------------2---------------2---| 


E|-----7---------------------------|---------------------------------|---------------------------------| 
B|---------------------------------|---------------------------------|-----0---------------------------| 
G|-------------2-------2-------0---|-----0---------------------------|---------------------------------| 
D|---------------------------------|-------------4-------2-------0---|-----0---------------------------| 
A|---------------------------------|-------------0---------------0---|-----2---------------------------| 
E|-------------2---------------0---|---------2-------2-------2-------|-2-----------2---------------2---| 


E|---------------------------------|---------------------------------|---------------------------------| 
B|---------------------------------|---------------------------------|---------------------------------| 
G|---------------------------------|---------------------------------|---------------------------------| 
D|-----0---------------0-----------|-----0---------------2-----------|-----4---------------------------| 
A|---------------------------------|---------------------4-----------|-----5---------------------------| 
E|-------------2---------------2---|-------------2---------------0---|---------------------------------| 


E|---------------------7-------5---|---------------------2---------------| 
B|---------------------------------|-----7--------------------------5----| 
G|-------------4-------7-------7---|-----7-------------------------------| 
D|-------------4-------------------|---------0---4---0----------0---4----| 
A|-------------2-----------0-------|-0---0---------------2---------------| 
E|---------2-------2---------------|-------------------------------------| 

|-----0------------------------------| 
|-----2------------------------------| 
|---------------2-------2-------2----| 
|-0-------------2-------2-------2----| 
|-----0-----4-------4-------4--------| 
|------------------------------------| 


E|-----------------------------0---|-2--0--------------------------0---| 
B|-----------------0---5-----------|-------3---------------------------| 
G|-----1-------1-------------------|-------4---------------------------| 
D|-------------2-------2-------2---|-------5-------0-------0-------0---| 
A|-4-------2-------2-------2-------|-2---------2-------2-------2-------| 
E|-----4---------------------------|-------3---------------------------| 

|----------------------------------| 
|-----3-------2-------0------------| 
|-----2-----------------------2----| 
|-------------4-------4-------4----| 
|-2-------4-------4-------4--------| 
|-----2----------------------------| 




E|---------------------------------|-----------------------------3---|-7--------------------0---| 
B|-----0---------------------------|---------------------0---3-------|-----------------3--------| 
G|-----0---------------------------|---------------------------------|------------2----2--------| 
D|-------------0---------------0---|-------------0-------------------|-------0------------------| 
A|-4-------2-------2-------2-------|-2-------2-------2---------------|--------------------------| 
E|-----3---------------3-----------|-----3---------------------------|-----------------5--------| 


E|------------------------|------------------------|------------------------|--------------------0---| 
B|-----2---------2----3---|-----0------------------|------------------------|-----3---------3--------| 
G|-----2----2----2--------|----------2----2----0---|------------------------|----------2-------------| 
D|------------------------|-----4---------0--------|-----2----4----0----0---|------------------------| 
A|------------------------|---------------0--------|-----5------------------|------------------------| 
E|-----5---------5--------|------------------------|------------------------|-----5---------5--------| 


E|------------------------|------------------------|------------------------|--------------------0---| 
B|-----2---------2----3---|-----0------------------|------------------------|-----3---------3--------| 
G|----------2-------------|----------2----2----0---|-----0------------------|----------2-------------| 
D|------------------------|---------------0--------|----------4----2----0---|------------------------| 
A|------------------------|-----5---------0--------|-----5---------4--------|---------------2--------| 
E|-----5---------5--------|------------------------|------------------------|------------------------| 


E|------------------------|------------------------|------------------------|--------------------0---| 
B|-----2---------2----3---|-----0------------------|------------------------|-----3---------3--------| 
G|----------2-------------|----------2----2----0---|-----0------------------|----------2-------------| 
D|------------------------|------------------------|----------4----2----0---|-----0----0----0----0---| 
A|-----2---------2--------|-----2---------2--------|------------------------|-----0------------------| 
E|------------------------|------------------------|-----0---------0--------|------------------------| 


E|------------------------|------------------------|------------------------|--------------------0---| 
B|-----2---------2----3---|-----0------------------|--------------------2---|-----3---------3--------| 
G|----------2-------------|----------2----2----0---|-----0------------------|----------2-------------| 
D|-----0----0----0----0---|------------------------|----------4----2--------|-----0----0----0----0---| 
A|------------------------|-----0----0----0----0---|-----0----0----0----0---|-----0------------------| 
E|------------------------|------------------------|------------------------|------------------------| 


E|------------------------|------------------------|------------------------|----------5----5----3---| 
B|-----2---------2----3---|-----0------------------|--------------------2---|------------------------| 
G|----------2-------------|----------2----2----0---|-----0------------------|----------2----2----0---| 
D|-----0----0----0----0---|-----0----0----0----0---|-----0----0----0----0---|------------------------| 
A|------------------------|------------------------|----------9----7----4---|------------------------| 
E|------------------------|------------------------|------------------------|---------------2--------| 


E|-----3----2----2----0---|-----5---------------------------|-----0---------------0-------2---| 
B|------------------------|-----3---------------3-------5---|---------------------------------| 
G|-----0--------------0---|-------------2-------2-------2---|-----6---------------6-------7---| 
D|----------4----4--------|---------------------------------|-----7-------7-------7-------7---| 
A|------------------------|---------------------------------|---------------------------------| 
E|-----0---------0--------|---------------------------------|---------0-------0-------0-------| 


E|-----0---------------------------|-----3-------2-------0-----------|-----5---------------------------| 
B|-----0---------------3-----------|-----------------------------3---|-----3---------------3-------5---| 
G|-------------2-------2-------0---|-----0---------------------------|-------------2-------2-------2---| 
D|---------------------------------|-------------4-------2-------0---|---------------------------------| 
A|-----------------2---------------|-2---------------------------0---|---------------------------------| 
E|-0-----------2---------------3---|-------------3-----------0-------|-0-------------------------------| 


E|-----0---------------0-------2---|-----3---------------------------|-----3---3---2---2---0---0-------| 
B|---------------------------------|-----5---------------3-----------|-----------------------------3---| 
G|-----6---------------6-------7---|-----4-------2-------2-------0---|-----0---0-----------------------| 
D|-----7-------7-------7-------7---|---------------------------------|-------------4---4---2---2---0---| 
A|---------------------------------|---------------------------------|-2---------------------------0---| 
E|---------------------------------|-0-----------2---------------3---|-------------3-----------0-------| 


E|-----7---7-----------7---7---9---|-9---7---7-----------7---7---9---|-9---------------------------7---| 
B|-3-----------7---7---------------|-------------7---7---------------|-7---10--10----------10--10------| 
G|---------------------------------|---------------------------------|-------------6---9---------------| 
D|---------------------------------|---------------------------------|---------------------------------| 
A|-----0---------------0-----------|-0---------------0---------------|-----0---0---0---0---0---0---0---| 
E|-------------0---------------0---|---------0---------------0-------|---------0-------0-------0-------| 


E|-7---7---7-----------7---7---9---|-9---9---9-----------9---9---9---|-10--10--10----------10--10--12--| 
B|-8-----------7---7---------------|-7-----------7---7---------------|---------12--7---8---------------| 
G|---------------------------------|---------------------------------|---------------------------------| 
D|-----0-------0-------0-----------|---------------------------------|---------------------------------| 
A|---------------------------------|---------------------------------|---------------------------------| 
E|-0-------------------------------|---------------------------------|---------------------------------| 


E|-12--12--------------|------------------|------------0-----|-----------------------| 
B|---------------------|------------------|------------12----|-----0-----------------| 
G|---------------------|------------------|-----0------------|-----------------------| 
D|---------------------|------------------|------------------|-----------------------| 
A|---------------------|-----3------3-----|------------------|-----3-----3-----3-----| 
E|--------8------------|------------------|------------------|-----------------------| 


E|------------------|----------------------|------------------------------| 
B|------------------|-----------3----------|------------------------------| 
G|------------------|----------------------|-----0------------------------| 
D|------------------|-----------3----------|-----10-----------------------| 
A|------------------|-----------3----------|-----15-----------------------| 
E|------------------|-----------3----------|-----0------------------------| 
	  

Search Paypal
auto scroll beats size up size down change color columns
tab show chords e-chords YouTube Clip e-chords hide all tabs e-chords go to top tab