HIM

home > HIM

Gone With The Sin Keyboard

HIM

Difficulty: ExpertExpert

by Theteh

tuner correct add songbook print version text version save to e-mail
chordsukulelecavacokeyboardtabbassdrummharmonicsflute Guitar Pro
chords

Gone With The Sin

  		I love your skin so white 
I love your touch cold as ice 
and I love every single tear your cry 
F 
I just love the way you're losing your life 
 
Am  G           F                      C G 
Oh my baby how beatiful you are 
Am  G          F                       C G 
Oh my darling compelely torn apart 
Am  G          F                       C G 
You're gone with the sin my baby and beatiful you are 
Am               G               F 
So gone with the sin my darling 
 
Am           G                   Am  G 
I adore the despair in your eyes 
Am           G                   Am  G 
I worship your lips once red as wine 
Am           G                   Am  G 
I grave your scent sending shives down my spine 
         Am                     G                      F 
And I just love the way you're running out of life 
 
Am  G           F                      C G 
Oh my baby how beatiful you are 
Am  G          F                       C G 
Oh my darling compelely torn apart 
Am  G          F                       C G 
You're gone with the sin my baby and beatiful you are 
Am               G               F 
So gone with the sin my darling 
 
E ---------------------------------------------------------| 
B ---------------------------------------------------------| 
G -----9---7\5\4-----4-5---7-5---4------------------| 
D -7----------------5---------------------7-5-7--------| 
A ---------------------------------------------------7----| 
E ---------------------------------------------------------| 
 
E --------------------------------------------------------------------------------------------------------------------------------------------------| 
B -------------------------------5-----------------------------------------------------------------------------------------------------------------| 
G -----9---7-5-7---4-5-7--------7-5---7-5--------------------------------------------------------------------------------------------------| 
D -7----------------------------------------------7-5--------------------------------------------------------------------------------------------| 
A -------------------------------------------------------7-5---3-2-0----2-3-2---3-5-5\7--5-3-2-0----2-3-2--3-5-5\7--5-3-2\3----| 
E -------------------------------------------------------------------------------------------------------------------------------------------------| 

Bm  A              G                 D A 
Oh my baby how beatiful you are 
Bm  A              G                 D A 
Oh my darling compelely torn apart 
Bm  A              G                 D A 
You're gone with the sin my baby and beatiful you are 
Bm                A               G 
So gone with the sin my darling 

	  

Full key step upFull key step up
Half key step upHalf key step up
Half key step downHalf key step down
Full key step downFull key step down
Search Paypal
auto scroll beats size up size down change color columns
tab show chords e-chords YouTube Clip e-chords hide all tabs e-chords go to top tab