Blink 182

home > Blink 182

Depends Keyboard

Blink 182

Difficulty: nolevelnolevel

tuner correct add songbook print version text version save to e-mail
chordsukulelecavacokeyboardtabbassdrummharmonicsflute Guitar Pro
chords

Depends

Year: 1994 - Album: Cheshire Cat

(Delonge / Hoppus)

  		 
Intro e verso : 
|----------------------------| 
|----------------------------| 
|----------------------------| 
|-4-4-4-4--------------------| 
|-5-5-5-5-5-5-5-5--3-3-3-3---| 
|---------7-7-7-7--5-5-5-5---| 
 
Well I guess it all depends 
undergarments. 
|---------------------------| 
|---------------------------| 
|---------------------------| 
|-5-5-----------5-5---------| 
|-7-7-5-7-3-3---7-7-3-3-5-5-| 
|-----5-7-5-5-------5-5-7-7-| 
 
Step back in the light... 
|---------------------------| 
|---------------------------| 
|-------7-7-7---------------| 
|-------5-5-5---------------| 
|-7-7-7-------7-7-7---5-5-5-| 
|-5-5-5-------5-5-5---3-3-3-| 
termina em  
|---| 
|---| 
|---| 
|---| 
|-7~| 
|-5~| 
(solo do finaL do GUNS) 
|--------------14-| 
|----15-----------| 
|-------14--12----| 
|-12--------------| 
|-----------------| 
|-----------------| 
 
 
 
 
_______________________________________________________ 
Contribuição: kayan([email protected]) 

	  

Search Paypal
auto scroll beats size up size down change color columns
tab show chords e-chords YouTube Clip e-chords hide all tabs e-chords go to top tab