Alter Bridge

home > Alter Bridge

Fallout Keyboard

Alter Bridge

Difficulty: nolevelnolevel

by carlluz

tuner correct add songbook print version text version save to e-mail
chordsukulelecavacokeyboardtabbassdrumsharmonicsflute Guitar Pro
chords

Fallout

Key:  C# More
Fallout Key G#G#
Fallout Key AA
Fallout Key A#A#
Fallout Key BB(one step down)
Fallout Key CC(half step down)
Fallout Key C#C#(original key)
Fallout Key DD(half step up)
Fallout Key D#D#(one step up)
Fallout Key EE
Fallout Key FF
Fallout Key F#F#
Fallout Key GG
  		

Intro/1st Verse: Light Crunch Electric w/ Acoustic Back Track 
 
---------------------------------------------------------| 
-5h6p5------------------------5h6p5----------------------| 
-------7-5h7-----0h5--2-------------7-5h7-----0h5--2-0---| 
-------------0----------0h5h7-------------0----------5---| 
---------------------------------------------------------| 
-0-------------0----0---0-----0-------------0----0---0---| 
 

 
-----------------------------0-----------0---------------| 
-----------------------3-------------5-----------5-------| 
--0h2p0------------------0-----5------5----5-------5-----| 
-------3-0h2---2-3---3-----3-------------------------7*--| 
-3-----------3-----3-----------3---3---3---3---3-----7*--| 
---------------------------------------------------------| 
 

0:11 
 
---------------------------------------------------------| 
-5h6p5------------------------5h6p5----------------------| 
-------7-5h7-----0h5--2-------------7-5h7-----0h5--2-0---| 
-------------0----------0h5h7-------------0----------5---| 
---------------------------------------------------------| 
-0-------------0----0---0-----0-------------0----0---0---| 
 
 Rebel.... 
 
-----------------------------0-----------0---------------| 
-----------------------3-------------5-----------5-------| 
--0h2p0------------------0-----5------5----5-------5-----| 
-------3-0h2---2-3---3-----3-------------------------5*--| 
-3-----------3-----3-----------3---3---3---3---3-----5*--| 
---------------------------------------------------------| 
 
 Honor... 

0:22 
 
---------------------------------------------------------| 
-5h6p5------------------------5h6p5----------------------| 
-------7-5h7-----0h5--2-------------7-5h7-----0h5--2-0---| 
-------------0----------0h5h7-------------0----------5---| 
---------------------------------------------------------| 
-0-------------0----0---0-----0-------------0----0---0---| 
 
 Anguish... 
 
-----------------------------0-----------0-----------0---| 
-----------------------3-------------5-----------5-------| 
--0h2p0------------------0-----5------5----5-------5-----| 
-------3-0h2---2-3---3-----3-----------------------------| 
-3-----------3-----3-----------3---3---3---3---3---------| 
---------------------------------------------------------| 
 
 Day... 

0:34 
 
|---------------------------------------------------------| 
|-5h6p5------------------------5h6p5----------------------| 
|-------7-5h7------------------------7-5h7----------------| 
|-------------0----------------------------0--------------| 
|---------------------------------------------------------| 
|-0-------------00---0---0---0-0-------------000000000----| 
 
| Lost...                                                 | 
 
|---------------------------------------------------------| 
|---------------------------------------------------------| 
|---------------------------------------------------------| 
|------------------------------------------------/////////| 
|------------------------------------------------/////////| 
|------------------------------------------------/////////| 
 

1st Chorus: Distortion 
Phrase 1: Played twice 
The second time phrase 1 is 
played phrase 2 is played over it 
0:39 
 
--8-----3--3-----0-----3---| 
--11----6--5-----3-----3---| 
--10----5--5-----2-----5---| 
--8-----3--3-----0-----5---| 
--8-----3--3-----0-----3---| 
--8-----3--3-----0---------| 
 

Phrase 2: 
0:50 
 
-----------------0-----3--| 
--11----8-/-10---3-----3--| 
-----------------2-----5--| 
--8-----5-/-7----0-----5--| 
-----------------0-----3--| 
-----------------0--------| 
 

2nd Verse: Light Crunch Electric w/ Acoustic Back Track 
1:02 
 
|---------------------------------------------------------| 
|-5h6p5------------------------5h6p5----------------------| 
|-------7-5h7-----0h5--2-------------7-5h7-----0h5--2-0~--| 
|-------------0----------0h5h7-------------0----------5~--| 
|---------------------------------------------------------| 
|-0-------------0----0---0-----0-------------0----0---0---| 
 
| Own...                                                  | 
 
|---------------------------------------------------------| 
|-10v~~~---------------------------------------------10-13| 
|---------------------------------------------------------| 
|---------------------------------------------------------| 
|---------------------------------------------------------| 
|---------------------------------------------------------| 
 

1:07 
 
|-----------------------------0-----------0---------------| 
|-----------------------3-------------5-----------5-------| 
|-0h2p0-------------------0-----5------5----5-------5-----| 
|-------3-0h2---2-3---3-----3-------------------------5*--| 
|-3-----------3-----3-----------3---3---3---3---3-----5*--| 
|---------------------------------------------------------| 
 
|                                                         | 
 
|---------------------------------------------------------| 
|---------------------------------(fpbr)------------------| 
|12fbrv~~~~-------------------10-12-12-p-10---------------| 
|-------------------------------------------12-12v~~~~----| 
|---------------------------------------------------------| 
|---------------------------------------------------------| 
 

1:13 
 
|---------------------------------------------------------| 
|-5h6p5------------------------5h6p5----------------------| 
|-------7-5h7-----0h5--2-------------7-5h7-----0h5--2-0---| 
|-------------0----------0h5h7-------------0----------5---| 
|---------------------------------------------------------| 
|-0-------------0----0---0-----0-------------0----0---0---| 
 
| Frustrated...                                           | 
 
|-------------------------17------------------------------| 
|-13/15\13/15-13/15\13/15---------------------------------| 
|---------------------------------------------------------| 
|---------------------------------------------------------| 
|---------------------------------------------------------| 
|---------------------------------------------------------| 
 

1:18 
 
|-----------------------------0-----------0-----------0---| 
|-----------------------3-------------5-----------5-------| 
|-0h2p0-------------------0-----5------5----5-------5-----| 
|-------3-0h2---2-3---3-----3-----------------------------| 
|-3-----------3-----3-----------3---3---3---3---3---------| 
|---------------------------------------------------------| 
 
| Courage...                                              | 
 
|-------------------------15------------------------------| 
|-15\13/15\13-15\13/15\13---------------------------------| 
|---------------------------------------------------------| 
|---------------------------------------------------------| 
|---------------------------------------------------------| 
|---------------------------------------------------------| 
 

1:24 
 
|---------------------------------------------------------| 
|-5h6p5------------------------5h6p5----------------------| 
|-------7-5h7-----0h5--2-------------7-5h7-----0h5--2-0---| 
|-------------0----------0h5h7-------------0----------5---| 
|---------------------------------------------------------| 
|-0-------------0----0---0-----0-------------0----0---0---| 
 
| Faithless...                                            | 
 
|-------------------------17------------------------------| 
|-13/15\13/15-13/15\13/15---------------------------------| 
|---------------------------------------------------------| 
|---------------------------------------------------------| 
|---------------------------------------------------------| 
|---------------------------------------------------------| 
 

1:30 
 
|-----------------------------0-----------0-----------0---| 
|-----------------------3-------------5-----------5-------| 
|-0h2p0-------------------0-----5------5----5-------5-----| 
|-------3-0h2---2-3---3-----3-----------------------------| 
|-3-----------3-----3-----------3---3---3---3---3---------| 
|---------------------------------------------------------| 
 
| Disowns...                                              | 
 
|-------------------------15------------------------------| 
|-15\13/15\13-15\13/15\13---------------------------------| 
|---------------------------------------------------------| 
|---------------------------------------------------------| 
|---------------------------------------------------------| 
|---------------------------------------------------------| 
 

1:35 
|-5h6p5------------------------5h6p5----------------------| 
|-------7-5h7-----0h5--2-------------7-5h7-----0h5--2-0---| 
|-------------0----------0h5h7-------------0----------5---| 
|---------------------------------------------------------| 
|-0-------------0----0---0-----0-------------0----0---0---| 
| ...while he still waits...                              | 
|---------------------------------------------------------| 
 
|---------------------------------------------------------| 
|---------------------------------------------------------| 
|---------------------------------------------------x-x-x-| 
|---------------------------------------------------x-x-x-| 
|---------------------------------------------------x-x-x-| 
 


2nd Chorus: Distortion 
Phrase 1: Played twice 
The second time phrase 1 is 
played phrase 2 is played over it 
1:41 
 
--8-----3--3-----0-----3---| 
--11----6--5-----3-----3---| 
--10----5--5-----2-----5---| 
--8-----3--3-----0-----5---| 
--8-----3--3-----0-----3---| 
--8-----3--3-----0---------| 
 

Phrase 2: 
1:52 
 
-----------------0-----3--|---------------------------| 
--11----8-/-10---3-----3--|---------------------------| 
-----------------2-----5--|---------------------------| 
--8-----5-/-7----0-----5--|-x1--0---------------------| 
-----------------0-----3--|-x1--0---------------------| 
-----------------0--------|-x1--0---------------------| 
 
                          |2:03 ^on the one beat      | 
                          |---------------------------| 
                          |---------------------------| 
                          |-----7--7--7--7--7--7--7--7| 
                          |---------------------------| 
                          |-----5--5--5--5--5--5--5--5| 
                          |---------------------------| 


Pre-Bridge: 
Detune and Touch Wah on Lead 
Clean Electric w/ Acoustic Back on Rhythm 
2:09 
 
|-----------------------------------------|     there is detune 
|-----------------------------------------|     and touch wah 
|-7---7---7---7---7---7---7---7-----------|  x4 on all the octaves 
|-----------------------------------------|  x4 played in the 
|-5---5---5---5---5---5---5---5-----------|     bridge, if I don't 
|-----------------------------------------|     have my FX I bend 
 
|                                  |     them a little to give 
 
|----------------------------------|     it that feel and 
|----------------------------------|     use a wah pedal 
|----------------------------------|  x4 
|----0---0---0---0---0---0-------0-|  x4 
|---0---0---0---0---0---0-------0--| 
|-8---3---5---0---1---5---875-0~~~-| 
 

2:32 3 Guitars 
 
|----------------------------------| 
|----------------------------------| 
|-7---7---7---7---7---7---7---7----| 
|----------------------------------| 
|-5---5---5---5---5---5---5---5----| 
|----------------------------------| 
 
| Cast aside...                    | 
|-5---5---5---5---8---8---8---8----| 
|(10)(10)(10)(10)(13)(13)(13)(13)--| 
	  

Search Paypal
auto scroll beats size up size down change color columns
tab show chords e-chords YouTube Clip e-chords hide all tabs e-chords go to top tab