Rojo

home > Rojo

No Me Soltarás Drum Tab

Rojo

Difficulty: ExpertExpert

by shadow%5F99x

tuner correct add songbook print version text version save to e-mail
chordsukulelecavacokeyboardtabbassdrummharmonicsflute Guitar Pro
chords

No Me Soltarás

(Matt Redman)

Key:  B
  		Nota: - en la partitura los simbolos 
        y su instrumento son: 
        'C' crash, 
        'H' hithat, 
        'S' snare drum o tarola, 
        'B' bajs drum o bombo 
        'x' se toca en el filo de la tarola) 
        't' ton pequeño (el de la izquierda) 
        'T' ton mediano (el de la derecha) 




C |X---------------|----------------|este es el ritmo 
H |--X-X-X-X-X-X-X-|X-X-X-X-X-X-X-X-|con el que empieza 
S |----x-------x---|----x-------x---| 
B |0-----0---------|0-----0---------| 
   1 + 2 + 3 + 4 +  1 + 2 + 3 + 4 + 



Coro: 
C |X---------------|----------------|X 
H |--X-X-X-X-X-X-X-|X-X-X-X-X-X-X-X-| 
S |----0-------0---|----0-------0---| 
B |O-----0-0-------|0-----0-0-------| 
   1 + 2 + 3 + 4 +  1 + 2 + 3 + 4 + 

C |X---------------|----------------| t|-0-----| 
H |--X-X-X-X-X-X-X-|X-X-X-X-X-X-X-X-| T|----0--| 
S |----x-------x---|----x-------x---| 
B |0-----0---------|0-----0---------|./. 
   1 + 2 + 3 + 4 +  1 + 2 + 3 + 4 + 

C |X---------------|----------------|X 
H |--X-X-X-X-X-X-X-|X-X-X-X-X-X-X-X-| 
S |----0-------0---|----0-------0---| 
B |0-----0-0-------|0-----0-0-------| 
   1 + 2 + 3 + 4 +  1 + 2 + 3 + 4 + 
 Despues de Intermedio 

C |X---------------|----------------|X 
H |--X-X-X-X-X-X-X-|X-X-X-X-X-X-X-X-| 
S |----0-------0---|----0-------0---| 
B |0-----0-0-------|0-----0-0-------| 
   1 + 2 + 3 + 4 +  1 + 2 + 3 + 4 + 

C |X---------------|----------------| 
H |--X-X-X-X-X-X-X-|X-X-X-X-X-X-X-X-| 
S |----x-------x---|----x-------x---| 
B |0-----0---------|0-----0---------| 
   1 + 2 + 3 + 4 +  1 + 2 + 3 + 4 + 
 C|------|X 
  t|-0---|                fin 
 T|---0-| 

Dios los bendiga!! :) 

--SHADOW-- 
	  

Search Paypal
auto scroll beats size up size down change color
tab show chords e-chords YouTube Clip e-chords hide all tabs e-chords go to top tab