Metallica

home > Metallica

Disposable Heroes Drum Tab

Metallica

Difficulty: EasyEasy

tuner correct add songbook print version text version save to e-mail
chordsukulelecavacokeyboardtabbassdrummharmonicsflute Guitar Pro
chords

Disposable Heroes

Year: 1986 - Album: Master of Puppets

  		
Note:  About 175 bpm.  O in HH means open it.  Hf means Close the HH with your foot.  
C means Choke.  For the ride sections, I'm pretty sure Lars is just using a crash bell, 
but to make it easier to understand I'll just write it as a Ride.

Intro
      |   Repeat 3x		 | 
C     |------------X---X---X---|------------------X-----|
S     |------------------------|------------------o-----|
T2 6/4|o-o-o-o-o-o-------------|o-o-o-o-o-o-------------| Repeat 4x
T3    |o-o-o-o-o-o-------------|o-o-o-o-o-o-------------|
B     |------------0---0---0---|------------0-0-0-------|

			     |   Repeat 3x    |
C     |----------------|----------------|--------X---X---|X---------------|
H 4/4 |not-in-strict---|x---x---x---x---|x---x-----------|----x---x---x---|
S     |--time----------|----------------|--------o---o---|o-------o-------|

  |  Repeat 2x     |
C |----------------|--------X---X---|X---------------|--------X-------|
H |x---x---x---x---|x---x-----------|----x---x---x---|x---x-------x---|
S |--------o-------|--------o---o---|--------o-------|--------o-------|
B |----------------|----------------|0-----0---0---0-|0---0-0---------|

C |---------X-------|----------------|X-------X-------|------------X---|
H |x---x--------x---|x---x---x-------|----x-------x---|x---x---x-------|
S |---------o-------|--------o-ooo-o-|--------o-------|------------o---|
B |0-----ttt------0-|0-----0---------|0-----0-------0-|0---0---0-0-----|

C |X---------------|X---------------|
H |----x---x---x---|----------------|
S |--------o-------|o---------------|
T1|----------------|--oo------------|
T2|----------------|----o-o---------|
T3|----------------|--------o-o-----|
T4|----------------|------------o-o-|
B |0-----0-------0-|----------------|

Part A (Lead guitar comes in)
C |X---------------|----------------|--------X-------|---------X---X---|
H |----x-x-x-x-x-x-|x-x-x-x-x-x-x-x-|x-x-x-x-----x-x-|x-x-x-x----------|
S |--------o-------|--------o-------|--------o-------|---------o---o---|
B |0-----0---0---0-|0---0-0---0---0-|0---0-0-------0-|0-----ttt--------|

C |X---------------|----------------|---------X-------|----------------|
H |--x-x-x-x-x-x-x-|x-x-x-x-x-x-x-x-|x-x-x-x----x-x-x-|x-x-x-x-x-------|
S |--------o-------|--------o-------|---------o-------|--------o-ooo-o-|
B |0-----0---0---0-|0---0-0---0---0-|0-----ttt------0-|0-----0---------|

C |----------------|----------------|--------X-------|----------------|
H |x-x-x---x-x-x-x-|x-x-x-x-x---x---|x---x-x-----x---|x---x---x-o-----|
S |--------o-------|--------o-------|--------o-------|----------------|
B |0-----0---0---0-|0---0-0---0---0-|0---0-0-------0-|0-----0---0---0-|
Hf|----------------|----------------|----------------|------------x---|

C |X---------------|------------X---|--------X-------|----------------|
H |----x-x-x-x-x-x-|x-x-x-x-x-x-----|x-x-x-x---x-x-x-|x-x-x-x-x-------|
S |--------o-------|------------o---|--------o-------|--------o-ooo-o-|
B |0-----0---0---0-|0---0---0-0-----|0-----0-------0-|0-----0---------|

Part B (Faster.  About 188 bpm.)
  |  Repeat 6x     |   Repeat 2x	|
C |X---------------|C---------------|X---------------|----------------|
H |--x-x-x-x-x-x-x-|----------------|----x-x-x-x-x-x-|x-x-x-x-x-x-x-x-|
S |--o---o---o---o-|----------------|----o-------o---|----o-------o---|
B |0---00--0---00--|0---------------|0-------0-------|0-------0-0---0-|

C |----X-------X---|----------------|X---------------|----X-------X---|
H |x-x---x-x-x---x-|x-x-x-x---------|----x-x-x-x-x-x-|x-x---x-x-x---x-|
S |----o-------o---|----o---f-------|----o-------o---|----o-------o---|
T1|----------------|----------o-o-o-|----------------|----------------|
B |0-------0-------|0---------------|0-------0-------|0-0-----0-0-----|

H |x-x-x-x-x-x-x-x-|----------------|
S |----o-------o---|----------------|
T2|----------------|o-o-o-f---------|
T3|----------------|--------o-o-----|
T4|----------------|------------f-o-|
B |0-------0-------|----------------|

Verse 1
C |X---------------|------------X---|X---------------|--------X---X---|
H |----x-x-x-x-x-x-|x-x-x-x-x-x-----|----x-x-x-x-x-o-|x-x-x-x---------|
S |----o-------o---|----o-------o---|----o-------o---|--o-o---o---o---|
B |0-------0-------|0-------0-0-----|0-------0-------|0---------------|

C |------------X---|----------------|X---------------|----------------|
H |x-x-x-x-x-x---x-|x-x-x-----------|----x-x-x-x-x-x-|----------------|
S |----o-------o---|----o-ooo-o-o-o-|----o-------o---|o-----o-----o---|
T1|----------------|----------------|----------------|--o-o---o-o---o-|
B |0-------0-0-----|0---------------|0-------0-------|----------------|

C |X---------------|----X-------X---|X---------------|----------------|
H |----x-x-x-x-x-x-|x-x---x-x-x-----|----x-x-x-x-x-x-|x-x-x-x---------|
S |----o-------o---|----o-------o---|----o-------o---|----o-o-o-o-o-o-|
B |0-------0-------|0-0-----0-0-----|0-------0-------|0---------------|

C |X---------------|----X-------X---|X---------------|----------------|
H |----x-x-x-x-x-x-|x-x---x-x-x---x-|--x-x-x-x-x-x-x-|x-x-x-----------|
S |----o-------o---|----o-------o---|----o-------o---|----o-ooo-o-o-o-|
B |0-------0-------|0-0-----0-0-----|0-------0-------|0---------------|

Chorus
C |X---------------|X---------------|    |X-----------|X-----------|
H |--x-x-x-x-x-x-x-|--x-x-x-x-x-x-x-| 3/4|--x-x-x-x-x-|--x-x-x-x-x-| Repeat 
S |--o---o---o---o-|--o---o---o---o-|    |--o---o---o-|--o---o---o-| 2x
B |0---00--0-------|0----0--0---00--|    |0----0--0---|0---00--00--|

							  |  Repeat 2x |
C    |----------------|X---------------|    |X-----------|	
H 4/4|x-x-x-x-x-x-x-x-|--x-x-x-x-x-x-x-| 3/4|--x-x-x-x-x-|
S    |--o---o---o---o-|--o---o---o---o-|    |--o---o---o-|
B    |0----0--0---00--|0---00--0---00--|    |0---00--00--|

							  |  Repeat 2x |
C    |X---------------|X---------------|    |X-----------|
H 4/4|--x-x-x-x-x-x-x-|--x-x-x-x-x-x-x-| 3/4|--x-x-x-x-x-|
S    |--o---o---o---o-|--o---o---o---o-|    |--o---o---o-|
B    |0----0--0----0--|0---00--0----0--|    |0---00--00--|

Part C (Lead Guitar)
  |   Repeat 2x    |    |  Repeat 2x |
C |X---------------|    |X-----------|	|X-X-X-X---X---|
H |--x-x-x-x-x-x-x-| 3/4|--x-x-x-x-x-| 4/4|--------------|
S |--o---o---o---o-|    |--o---o---o-|	|--------------|
B |0---00--0---00--|    |0---00--00--|	|0-0-0-0---0---|
							 1232233e&a4e&a

C |---------------X-|----------------|----------------|----------------|
H |-----------------|----x---x---x---|x---x---x---x---|x---x---x---x---|
S |f--------------o-|----o-------o---|----o-------o---|----o-------o---|
T1|---------f-------|----------------|----------------|----------------|
T2|---t-------------|----------------|----------------|----------------|
T3|--t--------------|----------------|----------------|----------------|
B |----t0-0---0-0---|--0-----0-0---0-|--0-----0-0---0-|--0-----0-0-----|

Part D ("Back to the front..") 
						 |  Repeat 2x	|
C |---------------X-|----------------|----------------|---------------X-|
H |-----------------|----x---x---x---|x---x---x---x---|-----------------|
S |f--------------o-|----o-------o---|----o-------o---|f--------------o-|
T1|---------f-------|----------------|----------------|---------f-------|
T2|---t-------------|----------------|----------------|---t-------------|
T3|--t--------------|----------------|----------------|--t--------------|
B |----t0-0---0-0---|--0-----0-0---0-|--0-----0-0---0-|----t0-0---0-0---|

			 |  Repeat 2x	|
C |----------------|----------------|---------------X-|----------------|
H |----x---x---x---|x---x---x---x---|-----------------|----x---x---x---|
S |----o-------o---|----o-------o---|f--------------o-|----o-------o---|
T1|----------------|----------------|---------f-------|----------------|
T2|----------------|----------------|---t-------------|----------------|
T3|----------------|----------------|--t--------------|----------------|
B |--0-----0-0---0-|--0-----0-0---0-|----t0-0---0-0---|--0-----0-0---0-|

C |----X-------X---|----------------|    |---------------|    |C-------|
H |x-------x-------|x---x---x---x---|    |---------------|    |--------|
S |----o-------o---|----o-------o---| 7/8|f--------f-----| 2/4|o-------|
T2|----------------|----------------|    |---t-----------|    |--------|
T3|----------------|----------------|    |--t------------|    |--------|
B |--0-----0-0---0-|--0-----0-0-----|    |----t0-0---0-0-|    |--------|

Verse 2
C |X---------------|------------X---|X---------------|----X-------X---|
H |----x-x-x-x-x-x-|x-x-x-x-x-x-----|--x-x-x-x-x-x-x-|----------------|
S |----o-------o---|----o-------o---|----o-------o---|oo--o---oo--o---|
B |0-------0-------|0-------0-0-----|0-------0-0-----|--00------0-----|

C |X---------------|----X---X---X---|X---------------|C---C---C---X---|
H |----x-x-x-x-x-x-|x-x-------------|----x-x-x-x-x-x-|----------------|	
S |----o-------o---|----o-------o---|----o-------o---|----------------|
B |0-------0-------|0-0-----0-0-----|0-------0-0-----|0---0---0---0---|

C |X---------------|-------------X---|X---------------|----------------|
H |--x-x-x-x-x-x-x-|x-x-x-x-x-x------|--x-x-x-x-x-x-x-|----------------|
S |----o-------o---|----o--------o---|----o-------o---|o-ooo-o---------|
T1|----------------|-----------------|----------------|--------o-o-o-o-|
B |0-------0-------|0-0-------ttt----|0-------0-------|----------------|

C |X---------------|----X-------X---|X---------------|----X-------X---|
H |----x-x-x-x-x-x-|x-x---x-x-x-----|--x-x-x-x-x-x-x-|x-x---x-x-x-----|
S |----o-------o---|----o-------o---|----o-------o---|----o-------o---|
B |0-------0-------|0-0-----0-0-----|0-------0-0-----|0-0-----0-0-----|

Chorus
  |   Repeat 2x    |    |  Repeat 2x |
C |X---------------|    |X-----------| 
H |--x-x-x-x-x-x-x-| 3/4|--x-x-x-x-x-| Repeat 2x
S |--o---o---o---o-|    |--o---o---o-|
B |0---00--0---00--|    |0---00--00--|

C |X---------------|X---------------|    |X-----------|------------|
H |--x-x-x-x-x-x-x-|--x-x-x-x-x-x-x-| 3/4|--x-x-x-x-x-|x-x-x-x-x-x-|
S |--o---o---o---o-|--o---o---o---o-|    |--o---o---o-|--o---o---o-|
B |0----0--0---00--|0---00--0----0--|    |0---00--00--|0---00--00--|

				| Repeat 2x	 |
C |X---------------|    |X-----------|
H |--x-x-x-x-x-x-x-| 3/4|--x-x-x-x-x-|
S |--o---o---o---o-|    |--o---o---o-|
B |0---00--0---00--|    |0---00--00--|

REPEAT C

REPEAT D

Part E 
C    |--------------|    |X---------------|-------------X---|-----------------|
R 7/8|--------------| 4/4|----^---^---^---|^---^----^-------|^---^----^-^-^---|
S    |--------------|	 |--------o-------|---------o---o---|---------o-----o-|
B    |--------------|	 |0-----0---0-----|0-----ttt--------|0-----ttt--------|

C |------------X---|X---------------|---------X---X---|X---------------|
R |^-^---^-^-------|----^---^---^---|-----------------|----^---^---^---|
S |----------------|--------o-----o-|o--------o---o---|--------o-------|
T1|------o---o-----|----------------|-----------------|----------------|
T2|----------------|----------------|---t-------------|----------------|
T3|----------------|----------------|--t--------------|----------------|
B |------------0---|0-----0---------|----t0-0---------|0-----0-------0-|

C |X-------C---X---|
S |o-ooo-o---------|
B |--------0---0---|

Bridge ("Why am I dying" etc. )
C |X---------------|------------X---|-----------------|------------X---|
R |----^---^---^---|^---^---^-------|^---^----^-^-^---|^-^---^-^-------|
S |--------o-------|o-------o---o---|---------o-----o-|----o-----o-----|
B |0-----0---0---0-|------0---------|0-----ttt--------|------------0---|

C |X---------------|X--------X---X---|--------X-------|X---------------|
R |----^---^---^---|----^------------|^---^-------^---|----------------|
S |--------o-------|o--------o---o---|--------o-------|o-ooo-o-o-ooo-o-|
B |0-----0-------0-|------ttt--------|0-----0-------0-|----------------|

Guitar Solo
C |X---------------|------------X---|----X-------X---|----------------|
H |----x---x---x---|x---x---x-------|x-------x-------|x---x-----------|
S |----o-------o---|----o-------o---|----o-------o---|----o---o-ooo-o-|
B |0-------0-0---0-|--0---0---0-----|0-0---0---0-----|0-0-------------|

C |X---------------|----X-----------|X---------------|----------------|
H |----x---x---x---|x-------x---x---|----x---x---x---|----------------|
S |----o-------o---|----o-------o---|----o-------o---|------o---------|
T1|----------------|----------------|----------------|f-o-o---o-o-o-o-|
B |0-------0-0---0-|--0-----0-0-----|0-------0-0-----|----------------|

C |X---------------|----X---X---X---|X-----------X---|----------------|
H |----x---x---x---|x---------------|----x---x-------|x---x-----------|
S |----o-------o---|--o-------o-----|----o-------o---|----o---o-ooo-o-|
B |0---------0-----|----0---0---0---|0---------0---0-|--0-------------|

C |X---------------|X---X---X---X---|X---------------|----------------|
H |----x---x---x---|----------------|----x---x---x---|----------------|
S |----o-------o---|o---o---o-------|----o-------o---|o---------------|
T1|----------------|----------------|----------------|--o-o-o---------|
T2|----------------|----------------|----------------|--------o-o-----|
T3|----------------|----------------|----------------|------------o-o-|
B |0---------0-----|------------0---|0---------0-----|----------------|

C |X---------------|-----------X----|X---------------|----------------|
H |----x---x---x---|x---x----x------|----x---x---x---|----x-x-----x-x-|
S |--------o-------|---------o------|--------o-----o-|o-o-----o-o-----|
B |0-----0---0-----|0-----ttt--0----|0-----0---------|----0-------0---|

C |X---------------|------------X---|X---------------|----------------------|
H |----x---x---x---|x---x---x-------|----x---x---x---|----------------------|
S |----o-------o---|----o-------o---|----o-------o---|o--------o----------o-|
T2|----------------|----------------|----------------|---t----------t-------|
T3|----------------|----------------|----------------|--t----------t--------|
B |0-------0-0---0-|--0-----0-0-----|0-------0-0-----|----t0-0-------t0-0---|

C |X---------------|-----------X-----|X---------------|----------------|
H |----x---x---x---|x---x----x-------|----x---x---x---|----------------|
S |--------o-------|---------o-------|--------o-------|--------o-------|
T1|----------------|-----------------|----------------|o-ooo-oo--o-o-o-|
B |0-----0---0-----|0-----ttt--0-----|0-----0---------|----------------|

C |X---------------|--------X---X---|----------------|----------------|
H |----x---x---x---|x---x-----------|x---x---x---x---|----------------|
S |----o-------o---|----o---o---o---|----o-------o---|o-oo------o-o-o-|
T1|----------------|----------------|----------------|----o-o-o-------|
B |0-------0-0---0-|--0-------------|0-0-----0-0-----|----------------|

C |X---------------|------------X---|X----------------|X------------X---|
H |----x---x---x---|x---x---x-------|----x---x---x----|----x----x-------|
S |--------o-------|o-------o---o---|o-------0--------|o--------o-------|
B |0-----0---0---0-|--0---0---------|------0-------ttt|------ttt----0---|

C |X---------------|--------X---X---|X---------------|--------X---X---|
H |----x---x---x---|x---x-----------|----x---x---x---|----------------|
S |----o-------o---|----o---o---o---|----o-------o---|o-------o---o---|
T1|----------------|----------------|----------------|--o-o-o---------|
B |0---------0---0-|--0-------------|0---------0-----|----------------|

C |X---------------|------------X---|X---------------|----------------|
H |----x---x---x---|x---x---x-------|----x---x---x---|----------------|
S |--------o-------|o-------o---o---|o-------o-------|ooooo---ooooo-o-|
B |0-----0---0---0-|--0---0---------|------0---------|----------------|

C |X---------------|------------X---|----------------|----------------|
H |----x---x---x---|x---x---x-------|----------------|----------------|
S |----o-------o---|----o-------o---|----------------|----------------|
T1|----------------|----------------|o-o-o-----------|----------------|
T2|----------------|----------------|--------f-o-o-o-|----------------|
T3|----------------|----------------|----------------|o-o-o-o---------|
T4|----------------|----------------|----------------|--------f-o-o-o-|
B |0-------0-0---0-|--0-----0-0-----|----------------|----------------|

C |X---------------|-------------X---|------------------|------------X---|
R |----^---^---^---|^---^----^-------|^---^-----^-^-^---|^-^---^-^-------|
S |--------o-------|---------o---o---|----------o-----o-|----------------|
T1|----------------|-----------------|------------------|----o-----o-----|
B |0-----0---0-----|0-----ttt--------|0------ttt--------|------------0---|

C |X----------------|--------X---X---|X---------------|--------------X-|
R |----^----^---^---|----------------|----^---^-------|----------------|
S |---------o-------|--------o---o---|--------o---o-o-|o---------------|
T3|-----------------|----------------|----------------|--o-o-o---------|
T4|-----------------|----------------|----------------|--------o-o-----|
Ft|-----------------|o---o-----------|----------------|------------o---|
B |0-----ttt--------|000-0-0---------|0-----0---------|--------------0-|

Bridge 2 ("Why am I Dying")
C |X---------------|------------X---|----------------|------------X---|
R |----^---^---^---|^---^---^-------|^---^---^-^-^---|^---^---^-------|
S |--------o-------|o-------o---o---|--------o-------|--------o---o---|
B |0-----0---0---0-|--0---0---------|0-----0---------|0-----0---------|

C |X----------------|----------------|X---------------|------------X---|
R |----^----^---^---|^---^-----------|----^---^---^---|^---^---^-------|
S |---------o-------|o-----o---------|--------o-------|o-------o---o---|
T1|-----------------|--------o-o-o-o-|----------------|----------------|
B |0-----ttt--0---0-|----------------|0-----0---0---0-|--0---0---------|
 
S     |o--------------|
T1    |---------o-----|
T2 7/8|---t-----------|
T3    |--t------------|
B     |----t0-0---0-0-|
 
Part F ("I was born for dying")
					  	|         Creshendo               |
C |X---------------|----------------|----------------|----------------|
S |o---------------|----------------|----------------|----------------|
T4|----------------|----------------|----------o-o-o-|o-o-o-o-O-O-O-O-|
Ft|----------------|----------------|----------o-o-o-|o-o-o-o-O-O-O-O-|

						|  Repeat 4x     |  Repeat 2x     |
C |X---------------|X---------------|X---------------|C---------------|
H |--x-x-x-x-x-x-x-|--x-x-x-x-x-x-x-|--x-x-x-x-x-x-x-|----------------|
S |--o---o---o---o-|--o---o---o---o-|--o---o---o---o-|----------------|
B |0---00--0---00--|0---00--0----0--|0---00--0---00--|0---------------|

Verse 3
C |X---------------|------------X---|X-----------X---|--------C---C---|
H |--x-x-x-x-x-x-x-|x-x-x-x-x-x-----|----x-x-x-x-----|x-x-x-x---------|
S |----o-------o---|----o-------o---|----o-------o---|----o-----------|
B |0-------0-------|0-------0-0-----|0-------0-0-----|0-0-----0---0---|

C |X---------------|-----X--------X---|X---------------|----------------|
H |----x-x-x-x-x-x-|x-x------x-x------|----x-x-x-x-x---|----------------|
S |----o-------o---|-----o--------o---|----o-------o-o-|o---------------|
T2|----------------|------------------|----------------|--o-o-oo--------|
T3|----------------|------------------|----------------|--------o-o-----|
T4|----------------|------------------|----------------|------------o-o-|
B |0-------0-------|--ttt------ttt----|0-------0-------|----------------|

C |X---------------|----X-------X---|X---------------|----------------|
H |--x-x-x-x-x-x-x-|x-x---x-x-x-----|----x-x-x-x-x-x-|----------------|
S |----o-------o---|----o-------o---|----o-------o---|--------------o-|
T2|----------------|----------------|----------------|oooo------------|
T3|----------------|----------------|----------------|----oooo--------|
T4|----------------|----------------|----------------|--------ooooo---|
B |0-------0-------|0-0-----0-0-----|0-------0-------|----------------|

C |X---------------|----X-------X---|X-----------X---|----------------|
H |----x-x-x-x-x-x-|x-x---x-x-x-----|----x-x-x-x---x-|x-x-x-----------|
S |----o-------o---|----o-------o---|----o-------o---|----o-ooo-o-o-o-|
B |0-------0-------|0-0-----0-0-----|0-------0-0-----|0-0-------------|
 
REPEAT CHORUS

Part G (Lead Guitar)
  |   Repeat 2x	 |    |  Repeat 2x |	|   Repeat 2x    |
C |X---------------|	|X-----------|	|X---------------|    |X-----------|
H |--x-x-x-x-x-x-x-| 3/4|--x-x-x-x-x-| 4/4|--x-x-x-x-x-x-x-| 3/4|--x-x-x-x---|
S |--o---o---o---o-|	|--o---o---o-|	|--o---o---o---o-|    |--o---o---f-|
B |0000000000000000|	|000000000000|	|0000000000000000|    |000000000---|

C |X-X-X-X---X---|X-X-X-X---X---|
S |------------f-|--------------|
B |t-t-t-0---0---|t-t-t-0---0---|

C |---------------X-|----------------|----------------|----------------|
H |-----------------|----x---x---x---|x---x---x---x---|x---x---x---x---|
S |f--------------o-|----o-------o---|----o-------o---|----o-------o---|
T1|---------f-------|----------------|----------------|----------------|
T2|---t-------------|----------------|----------------|----------------|
T3|--t--------------|----------------|----------------|----------------|
B |----t0-0---0-0---|--0-----0-0---0-|--0-----0-0---0-|--0-----0-0-----|

Part H ("Back to the Front") 
C |---------------X-|----------------|------------X---|----X-----------|
H |-----------------|----x---x---x---|x---x---x-------|x-------x---x---|
S |f--------------o-|----o-------o---|----o-------o---|----o-------o---| Repeat
T1|---------f-------|----------------|----------------|----------------| 2x
T2|---t-------------|----------------|----------------|----------------|
T3|--t--------------|----------------|----------------|----------------| 
B |----t0-0---0-0---|--0-----0-0---0-|--0-----0-0---0-|--0-----0-0-----|

C |---------------X-|----------------|----X-------X---|----X-------X---|
H |-----------------|----x---x---x---|x-------x-------|x-------x-------|
S |f--------------o-|----o-------o---|----o-------o---|----o-------o---|
T1|---------f-------|----------------|----------------|----------------|
T2|---t-------------|----------------|----------------|----------------|
T3|--t--------------|----------------|----------------|----------------|
B |----t0-0---0-0---|--0-----0-0-----|0-0-----0-0---0-|--0-----0-0-----|

						 |   repeat 2x    |
C |---------------X-|----------------|----------------|---------------X-|
H |-----------------|----x---x---x---|x---x---x---x---|-----------------|
S |f--------------o-|----o-------o---|----o-------o---|f----------------|
T1|---------f-------|----------------|----------------|---------f-----o-|
T2|---t-------------|----------------|----------------|---t-------------|
T3|--t--------------|----------------|----------------|--t--------------|
B |----t0-0---0-0---|--0-----0-0---0-|--0-----0-0---0-|----t0-0---0-0---|

C |----------------|----------------|----X-----------|---------------X-|
H |----x---x---x---|x---x---x---x---|x-------x---x---|-----------------|
S |----o-------o---|----o-------o---|----o-------o---|f--------------o-| Repeat 
T1|----------------|----------------|----------------|---------f-------|  3x
T2|----------------|----------------|----------------|---t-------------|
T3|----------------|----------------|----------------|--t--------------|
B |--0-----0-0---0-|--0---0---0---0-|--0-----0-0-----|----t0-0---0-0---|

S     |f--------------|
T1    |---------f-----|
T2 7/8|---t-----------|
T3    |--t------------|
B     |----t0-0---0-0-|

Part I
C |X---------------|X---------------|X---------------|----------------|
H |--x-x-x-x-x-x-x-|--x-x-x-x-x-x-x-|--x-x-x-x-x-x-x-|x---------------|
S |--o---o---o---o-|--o---o---o---o-|--o---o---o---o-|--o-o-------o-o-|
T1|----------------|----------------|----------------|--------f-------|
B |0---00--0---00--|0----0--0---00--|0---00--0---00--|0-----0---0-----|

                   |   Repeat 2x    |		     |  Repeat 2x     |
C |X---------------|X---------------|X-----------X---|X---------------|
H |--x-x-x-x-x-x-x-|--x-x-x-x-x-x-x-|--x-x-x-x-x-----|--x-x-x-x-x-x-x-|
S |--o---o---o---o-|--o---o---o---o-|------------o---|--o---o---o---o-|
B |0---00--0----0--|0---00--0---00--|0-----000-------|0000000000000000|

C |X---------------|----------------|X---------------|X---------------|
H |--x-x-x-x-x-x-x-|x---------------|--x-x-x-x-x-x-x-|--xx------------|
S |--o---o---o---o-|--o-o-------o-o-|--o---o---o---o-|----o-----------|
T1|----------------|--------f-------|----------------|------o-oooo----|
T2|----------------|----------------|----------------|------------oooo|
B |000000000000000-|0-----0---0-----|0---00--0---00--|0---------------|
Hf|----------------|----------------|----------------|--------x-x-x-x-|

			 |   Repeat 2x    |  Repeat 2x     |
C |X---------------|C---------------|X-------X-------|X---------------|
S |----o-----------|----------------|----------------|----------------|
T1|-ooo------------|----------------|----------------|----------------|
T2|-----ooo--------|----------------|----------------|----------------|
T3|--------oooo----|----------------|----------------|----------------|
T4|------------o--o|----------------|----------------|----------------|
B |0---------------|0---------------|0-------0-------|0---------------|
Hf|x-x-x-----------|----------------|----------------|----------------|

			 |   Repeat 3x    |
C |----------------|X---------------|C---------------|C---------------|X-------|
H |----------------|--x-x-x-x-x-x-x-|----------------|----------------|--------|
S |----------------|--o---o---o---o-|----------------|--------f---f---|--------|
B |----------------|0---00--0---00--|0---------------|0--------00--00-|0-------|

THE END




Contribuição: Vinicius Bittencourt ([email protected])
	  

Search Paypal
auto scroll beats size up size down change color
tab show chords e-chords YouTube Clip e-chords hide all tabs e-chords go to top tab