Linkin Park

home > Linkin Park

Given Up Drum Tab

Linkin Park

Difficulty: BeginnerBeginner

by EfraKary

tuner correct add songbook print version text version save to e-mail
chordsukulelecavacokeyboardtabbassdrummharmonicsflute Guitar Pro
chords

Given Up

Year: 2007 - Album: Minutes To Midnight

(Mike Shinoda E Chester Bennington)

Key:  E
	  Intro  
      
     _x4_    ____x1____ 
e|---x--x----x--x--x--x---|  
B|---x--x----x--x--x--x---|  
G|---x--x----x--xó-x--x---|  
D|---2--3----2--3--2--3---|  
A|---2--3----2--2--2--3---|  
E|---0--0----0--0--0--0---|  
_x4_    ____x1____ 
e|---0--0----0--0--0--0---|  
B|---0--0----0--0--0--0---|  
G|---0--0----0--0--0--0---|  
D|---2--3----2--3--2--3---|  
A|---2--3----2--2--2--3---|  
E|---0--0----0--0--0--0---| 

WAKING TO SWEAT AGAIN ANOTHER DAYS BEEN LAID TO WASTE, IN MY DISGRACE, STUCK IN MY HEAD AGAIN FEELS LIKE ILL NEVER LEAVE THIS PLACE THERES NO ESCAPE. 
_______________x2_______________ 

e|---x--x----0----x--x--x--x---|  
B|---x--x----1----x--x--x--x---|  
G|---x--x----2----x--3--x--x---|  
D|---2--3----2----2--3--2--3---|  
A|---2--3----0----2--2--2--3---|  
E|---0--0----0----0--0--0--0---|  

IíM MY OWN WORST ENEMY 

e|---3---2---|  
B|---3---3---|  
G|---0---2---|  
D|---0---0---|  
A|---2---x---|  
E|---3---x---|  
CORO 
IVE GIVEN UP... IM SICK OF FEELING IS THERE NOTHING YOU CAN SAY?,  
TAKE THIS ALL AWAY IM SUFFOCATING!  

__________x3__________ 
e|---0---3---2---0---|  
B|---0---3---3---1---|  
G|---0---0---2---2---|  
D|---2---0---0---2---|  
A|---2---2---0---0---|  
E|---0---3---0---0---|  

TELL ME WHAT THE FREAKINí IS WRONG  

e|---0---3---2---| 
B|---0---3---3---|  
G|---0---0---2---|  
D|---2---0---0---|  
A|---2---2---0---|  
E|---0---3---0---| 

WITH ME!  

e|---0---| 
B|---1---|  
G|---2---|  
D|---2---|  
A|---0---|  
E|---0---|  

I DONT KNOW WHAT TO TAKE, THOUGHT I WAS FOCUSED BUT IM SCARED,  
IM NOT PREPARED I HAVE A BETTER WAY, LOOKING FOR HOPE SOMEHOW SOMEWHERE,  
AND NO ONE CARES 
_______________x2_______________ 

e|---x--x----0----x--x--x--x---|  
B|---x--x----1----x--x--x--x---|  
G|---x--x----2----x--3--x--x---|  
D|---2--3----2----2--3--2--3---|  
A|---2--3----0----2--2--2--3---|  
E|---0--0----0----0--0--0--0---| 

CORO 

IíM MY OWN WORST ENEMY 

e|---3---2---|  
B|---3---3---|  
G|---0---2---|  
D|---0---0---|  
A|---2---x---|  
E|---3---x---|  

IVE GIVEN UP... IM SICK OF FEELING IS THERE NOTHING YOU CAN SAY?,  
TAKE THIS ALL AWAY IM SUFFOCATING!  

__________x3__________ 
e|---0---3---2---0---|  
B|---0---3---3---1---|  
G|---0---0---2---2---|  
D|---2---0---0---2---|  
A|---2---2---0---0---|  
E|---0---3---0---0---|  

TELL ME WHAT THE FREAKIN IS WRONG  

e|---0---3---2---| 
B|---0---3---3---|  
G|---0---0---2---|  
D|---2---0---0---|  
A|---2---2---0---|  
E|---0---3---0---| 

WITH ME!  

e|---0---| 
B|---1---|  
G|---2---|  
D|---2---|  
A|---0---|  
E|---0---|  

GO! 

PUT ME OUT OF MY MISERY, PUT ME OUT OF MY MISERY,  
PUT ME OUT OF MY, PUT ME OUT OF MY... 

_________________x3___________________ 
e|---x-------------------------------| 
B|---x-------------------------------|  
G|---x-------------------------------|  
D|---x-------------------------------|  
A|---x-------------------------------|  
E|---0-1-2-0-4-3-0-6-5-4-3-0-3-2-1---| 

FREAKINí MISERY! 

e|---x-----------------|    
B|---x-----------------|  
G|---x-----------------|  
D|---x-----------------|  
A|---x-----------------|  
E|---0-1-2-0-4-3-0-6---| 

____________x2_____________ 
     _x4_    ____x1____    _x3_    x1 
e|---x--x----x--x--x--x----x--x----x----|  
B|---x--x----x--x--x--x----x--x----x----|  
G|---x--x----x--3--x--x----x--x----x----|  
D|---2--3----2--3--2--3----2--3----2----|  
A|---2--3----2--2--2--3----2--3----2----|  
E|---0--0----0--0--0--0----0--0----0----|  

CORO 

IVE GIVEN UP... IM SICK OF FEELING IS THERE NOTHING YOU CAN SAY?,  
TAKE THIS ALL AWAY IM SUFFOCATING!  

__________x3__________ 
e|---0---3---2---0---|  
B|---0---3---3---1---|  
G|---0---0---2---2---|  
D|---2---0---0---2---|  
A|---2---2---0---0---|  
E|---0---3---0---0---|  

TELL ME WHAT THE FREAKIN IS WRONG  

e|---0---3---2---| 
B|---0---3---3---|  
G|---0---0---2---|  
D|---2---0---0---|  
A|---2---2---0---|  
E|---0---3---0---| 

WITH ME!  

e|---0---| 
B|---1---|  
G|---2---|  
D|---2---|  
A|---0---|  
E|---0---|  

e|---0---| 
B|---0---|  
G|---0---|  
D|---2---|  
A|---0---|  
E|---0---| 
	  

there isn't a video lesson for this song

request
Search
auto scroll beats size up size down change color
tab show chords e-chords YouTube Clip e-chords hide all tabs e-chords go to top tab