Helmet

Flushings

Helmet

drums

by  JOAOEWERTON

save to print version add songbook text version e-mail correct tuner
chordsukulelecavacokeyboardtabbassdrumsharmonicaflute Guitar Pro
close

there isn't a video lesson for this song

chords

Flushings

	  		
Intro 
G|----------------------------| 
D|----------------------------| 
A|----------------------------|(x8) 
D|--0-2-0-1-0-3-2-0-1-2-------| 

verse 1 
G|----------------------------| 
D|----------------------------| 
A|----------------------------|(x7) 
D|--0-2-0-1-0-3-2-0-1-2-------| 

G|----------------------------| 
D|----------------------------| 
A|----------------------------|(x1) 
D|--0-2-0-1-0-3-2-0-2-2-2-2---| 


Chorus 1 
G|------------------------------------| 
D|------------------------------------| 
A|------------------------------------|(x4) 
D|--0-0-3-6-5-3-5---0-3-0-3-6-5-3-5---| 

G|-------------------------| 
D|-------------------------| 
A|-------------------------|(x1) 
D|--0-2-0-1-0-3-2-0-1-2----| 


verse 2 
G|----------------------------| 
D|----------------------------| 
A|----------------------------|(x6) 
D|--0-2-0-1-0-3-2-0-1-2-------| 

G|----------------------------| 
D|----------------------------| 
A|----------------------------|(x1) 
D|--0-2-0-1-0-3-2-0-2-2-2-2---| 


Chorus 2 
G|------------------------------------| 
D|------------------------------------| 
A|------------------------------------|(x4) 
D|--0-0-3-6-5-3-5---0-3-0-3-6-5-3-5---| 


Bridge 
G|-------|         G|----------------------|       G|------------------| 
D|-------|         D|----------------------|       D|------------------| 
A|-------|(x1)     A|----------------------|(x12)  A|------------------|(x1)           
D|--2-4--|         D|--4-4-2-2-4-0-2-2-4---|       D|--4-4-2-4\3\2\1---|              


Outro 
G|-----------------------|        G|---------------------------|       
D|-----------------------|        D|---------------------------|          
A|-----------------------|(x3)    A|---------------------------|(x3)       
D|--0-2-0-1-0-3-2-0-1-2--|        D|--0-2-0-1-0-3-2-0-1-2p0----|          

G|-----------------------|-------------------------------------| 
D|-----------------------|-------------------------------------| 
A|-----------------------|-------------------------------------|(x1) 
D|--0-2-0-1-0-3-2-0-1-2--|--0-2-0-1-0-3-2-0-1-2-0r-------------| 






************************************ 

| \   Slide down 
| p   Pull off 
| r   Let note ring out 

************************************ 
		  

See also:

drums Ira! - Envelheço na Cidade drums Deep Purple - Smoke on the Water (ver. 2) drums Deep Purple - Smoke On The Water drums Deep Purple - Maybe Im A Leo drums Ira! - Dias de Luta drums Deep Purple - Lazy
e-chords

Other versions:

drums Helmet - Flushings
auto scroll beats size up size down change color
tab show chords e-chords YouTube Clip e-chords hide all tabs e-chords go to top tab

share