Good Charlotte

home > Good Charlotte

Moving On Drum Tab

Good Charlotte

Difficulty: nolevelnolevel

tuner correct add songbook print version text version save to e-mail
chordsukulelecavacokeyboardtabbassdrummharmonicsflute Guitar Pro
chords

Moving On

  		


Artist: Good charlotte
Song: Moving on
Album : The Young And The Hopeless
Drummer : ?
Tabber: Yamaha ([email protected])

C1:Cymbals    
C2:MORE CYMBALS 
R-:Ride cymbal  -o-Loose hihat
H-:Hihat        -X- accented hihat
T-:Tom          -#-Choke note
F-:Floor tom
S-:Snare drum  -g-gost note  -d- double stroke role
B-:Bass drum
hf:Hihat pedale


Intro
    
  |-------4x-------|                |---------------3-x---------------|
C1|----------------|x---------------|------------x---|x---------------|
S-|----------------|----------------|----------f-----|----------------|
B-|----------------|o---------------|------------o---|o---------------|

T-|------o----o----|
S-|--o----o----o-oo|
F-|-----o---o------|
B-|o---o---o-------|


Verse 1
                   |-------5x-------|
C1|x---------------|----------------|x---------------|----------------|
H-|----x-x-x-x-x-x-|x-x-x-x-x-x-x-x-|----o---o---o---|o---o---o---o---|
S-|----o-------o---|----o-------o---|----o-------o---|----o-------o-oo|
B-|o-o-----o-o-----|o-o-----o-o-----|o-o---o-o-o---o-|o-o---o-o-o-----|

                   |-------4x-------|
C1|x---------------|----------------|----------------|
H-|----x-x-x-x-x-x-|x-x-x-x-x-x-x-x-|x-x-x-x-x-x-x---|
S-|----o-------o---|----o-------o---|----o-------o-oo|
B-|o-o-----o-o-----|o-o-----o-o-----|o-o-----o-o-----|

C1|x---------------|----------------|
H-|----o---o---o---|o---o-----------|
T-|----------------|----------------|
S-|----o-------o---|----o---f-------|
F-|----------------|------------o-o-|
B-|o-o---o-o-o---o-|o-o---o---o-----|


Prechorus 1 (Loose hihat)
                                     ________________ ________________
  |-------2x-------|                |1.              |2.              |     C1|x---------------|x---------------|----------------|----------------|
H-|----------xxX---|----x---x---x---|x---x---x-------|x---x-----------|
T-|----------------|----------------|----------------|------------oooo|
S-|----------------|----o-------o---|----o-------f---|----o---oooo----|
B-|o---------------|o-----o-o-----o-|--o---o-o-------|--o---o---------|

  |---------------2-x---------------|
C1|x-------------x-|----------------|----------------|----------------|
R-|----x-x-x-x-x---|----x-x-x-x-x-x-|x-x-x-x-x-x-x---|----------------|
S-|----o-------o---|----o-------o---|----o-------o---|f---------------|
B-|o-------o-o---o-|--o-----o-o-----|o-o-----o-o---o-|----------------|


Chorus (I think the ride is play heard, but as a crahs kinda thing)

                                    |---------------2-x---------------|
C1|x---------------|----------------|----------------|----------------|
R-|----x-x-x-x-x-x-|x-x-x-x-x-x-x-x-|x-x-x-x-x-x-x-x-|x-x-x-x-x-x-x-x-|
S-|----o-------o---|----o-------o---|----o-------o---|----o-------o---|
B-|o-----o-o-----o-|--o---o-o-o---o-|o-----o-o-----o-|--o---o-o-o---o-|

C1|----------------|----------------|
R-|x-x-x-x-x-x-x-x-|x-x-x-x---------|
S-|----o-------o---|----o---oooooooo|
B-|o-----o-o-----o-|--o---o-----o---|


Verse 2
                   |-------4x-------|
C1|x---------------|----------------|----------------|
H-|----x-x-x-x-x-x-|x-x-x-x-x-x-x-x-|x-x-x-x-x-x-x---|
S-|----o-------o---|----o-------o---|----o-------o-oo|
B-|o-o-----o-o-----|o-o-----o-o-----|o-o-----o-o-----|

C1|x---------------|----------------|
H-|----o---o---o---|o---o---o---o---|
S-|----o-------o---|----o-------o-oo|
F-|----------------|----------------|
B-|o-o---o-o-o---o-|o-o---o-o-o-----|


                                    |-------4x-------|
C1|x---------------|----------------|----------------|x---------------|
H-|----x-x-x-x-x-x-|x-x-x-x-x-x-x-x-|x-x-x-x-x-x-x-x-|----o---o---o---|
S-|----o-------o---|----o-------o---|----o-------o---|----o-------o---|
B-|o-o-----o-o-----|o-o-----o-o-----|o-o-----o-o-----|o-o---o-o-o---o-|

H-|o---o-----------|
T-|--------o-------|
S-|----o-----------|
F-|------------o-o-|
B-|o-o---o---o-----|


Repeat prechorus 1 for prechorus 2 (Last two measure are deffrent)
(Last 2 measure)
R-|x-x-x-x-x-x-x-x-|x---------------|
S-|----o---o---o---|o---------------|
B-|o-o---o---o---o-|----------------|


Chorus 2
                                    |---------------2-x---------------|
C1|x---------------|----------------|----------------|----------------|
R-|----x-x-x-x-x-x-|x-x-x-x-x-x-x-x-|x-x-x-x-x-x-x-x-|x-x-x-x-x-x-x-x-|
S-|----o-------o---|----o-------o---|----o-------o---|----o-------o---|
B-|o-----o-o-----o-|--o---o-o-o---o-|o-----o-o-----o-|--o---o-o-o---o-|

C1|----------------|----------------|x---------------|----------------|
R-|x-x-x-x-x-x-x-x-|x-x-x-x---------|----x-x-x-x-x-x-|x-x-x-x-x-x-x-x-|
S-|----o-------o---|----o---oooooooo|----o-------o---|----o-------o---|
B-|o-----o-o-----o-|--o---o-----o---|o-----o-o-----o-|--o---o-o-o---o-|

  |---------------2-x---------------|
C1|----------------|----------------|----------------|----------------|
R-|x-x-x-x-x-x-x-x-|x-x-x-x-x-x-x-x-|x-x-x-x-x-x-x-x-|x-x-x-x---------|
T-|----------------|----------------|----------------|----------oooooo|
S-|----o-------o---|----o-------o---|----o-------o---|----o---oo------|
B-|o-----o-o-----o-|--o---o-o-o---o-|o-----o-o-----o-|--o---o-----o---|


Interlude (cymbal played soft)
                                    |---------------7-x---------------|
C1|x---------------|----------------|----------------|----------------|
R-|--x-b---x-x-b---|--x-b-x-x-b-x-xx|b-x-b---x-x-b---|--x-b-x-x-b-x-xx|
B-|o---------------|----------------|----------------|----------------|
                                     
                                    Louder and Lounder
                                     >>>>>>>>>>>>>>>>
                   |-------3x-------|-------4x-------|
R-|x-x-x-x-x-x-x-x-|g-g-g-g-g-g-g-g-|----------------|
S-|----------------|----------------|oooooooooooooooo|
B-|o---o---o---o---|o---o---o---o---|o---o---o---o---|


Chorus 3

                                    |---------------2-x---------------|
C1|x---------------|----------------|----------------|----------------|
R-|----x-x-x-x-x-x-|x-x-x-x-x-x-x-x-|x-x-x-x-x-x-x-x-|x-x-x-x-x-x-x-x-|
S-|----o-------o---|----o-------o---|----o-------o---|----o-------o---|
B-|o-----o-o-----o-|--o---o-o-o---o-|o-----o-o-----o-|--o---o-o-o---o-|

C1|----------------|----------------|x---------------|----------------|
R-|x-x-x-x-x-x-x-x-|x-x-x-x---------|----x-x-x-x-x-x-|x-x-x-x-x-x-x-x-|
S-|----o-------o---|----o---oooooooo|----o-------o---|----o---o---o---|
B-|o-----o-o-----o-|--o---o-----o---|o-o---o-o-o---o-|o-o---o---o---o-|

  |---------------2-x---------------|
R-|x-x-x-x-x-x-x-x-|x-x-x-x-x-x-x-x-|x-x-x-x-x-x-x-x-|x-x-x-x---x-----|
S-|----o-------o---|----o---o---o---|o---o---o---o---|o---o---oo------|
B-|o-o---o-o-o---o-|o-o---o---o---o-|--o---o---o---o-|--o---o---o-----|

  |---------------4-x---------------|
C1|x---------------|------------x---|x---------------|
S-|----------------|----------f-----|----------------|
B-|o---------------|------------o---|o---------------|

End

	  

Full key step upFull key step up
Half key step upHalf key step up
Half key step downHalf key step down
Full key step downFull key step down
Search Paypal
auto scroll beats size up size down change color
tab show chords e-chords YouTube Clip e-chords hide all tabs e-chords go to top tab