Blink 182

home > Blink 182

Pathetic Drum Tab

Blink 182

Difficulty: nolevelnolevel

tuner correct add songbook print version text version save to e-mail
chordsukulelecavacokeyboardtabbassdrummharmonicsflute Guitar Pro
chords

Pathetic

Year: 1997 - Album: Dude Ranch

(Delonge / Hoppus)

  		

Pathetic - Blink 182 (Dude Ranch) 
tabbed by Pudro ([email protected]) 
---------------------------------------------------------------------- 

Legend 
------- 
Time          :   |1  +  2  +  |1  + 
Cymbal line 1 : C1|------------|---- 
Cymbal line 2 : C2|------------|---- 
Snare line    : Sl|------------|---- 
Tom line      : Tl|------------|---- 
Bass drum line: Bl|------------|---- 

Time- 
  keeps beat, t1+=triplet time 

C1- 
  1,2 (1=highest, 2=lowest) 

C2- 
  r=ride, x=hi-hats closed, o=hi-hats open, h=hi-hats halfway open 

Sl- 
  o=single stroke, d=double stroke 

Tl- 
  1,2 (1=highest, 2=floor) 

Bl- 
  o=bass drum 
---------------------------------------------------------------------- 

Intro:   
       
          |--play 14x--| 
  |1tt+tt2tt+tt|1tt+tt2tt+tt|1 + 2 + | 
C1|1--2--------|------------|--------| 
C2|------h--h--|h--h--h--h--|--------| 
Sl|---o-----o--|---o-----o--|oooooooo| 
Tl|------------|------------|--------| 
Bl|o-------o---|o-------o---|o---o---| 

               |--play 10x--| 
  |1tt+tt2tt+tt|1tt+tt2tt+tt|1tt+tt2tt+tt| 
C1|1--2--------|------------|---1-----2--| 
C2|------h--h--|h--h--h--h--|h-----h-----| 
Sl|---o-----o--|---o-----o--|---o-----o--| 
Tl|------------|------------|------------| 
Bl|o-------o---|o-------o---|o-------o---| 

Verse: 

               |--play 6x---| 
  |1tt+tt2tt+tt|1tt+tt2tt+tt|1tt+tt2tt+tt| 
C1|1-----------|------------|------------| 
C2|---r--r--r--|r--r--r--r--|r--r--r-----| 
Sl|---o-----o--|---o-----o--|---o--------| 
Tl|------------|------------|---------1--| 
Bl|o-------o---|o-------o---|o-------o---| 

               |--play 6x---| 
  |1tt+tt2tt+tt|1tt+tt2tt+tt|1tt+tt2tt+tt| 
C1|1-----------|------------|---1-----2--| 
C2|---r--r--r--|r--r--r--r--|r-----r-----| 
Sl|---o-----o--|---o-----o--|---o-----o--| 
Tl|------------|------------|------------| 
Bl|o-------o---|o-------o---|o-------o---| 
   
  |--play 7x---| 
  |1tt+tt2tt+tt|1tt+tt2tt+tt| 
C1|------------|------------| 
C2|r--r--r--r--|r--r--r-----| 
Sl|---o-----o--|---o--------| 
Tl|------------|---------1--| 
Bl|o-------o---|o-------o---| 

               |--play 6x---| 
  |1tt+tt2tt+tt|1tt+tt2tt+tt|1 + 2 + | 
C1|1-----------|------------|--------| 
C2|---r--r--r--|r--r--r--r--|--------| 
Sl|---o-----o--|---o-----o--|oooooooo| 
Tl|------------|------------|--------| 
Bl|o-------o---|o-------o---|o---o---| 

Chorus: 
               |--play 2x---| 
  |1tt+tt2tt+tt|1tt+tt2tt+tt|1 + 2 + | 
C1|1--2--------|------------|--------| 
C2|------r--r--|r--r--r--r--|--------| --- play 2x  
Sl|---o-----o--|---o-----o--|-ooooooo|  
Tl|------------|------------|1-------|  
Bl|o-------o---|o-------o---|o---o---| |--play 2x---|  
|1tt+tt2tt+tt|1tt+tt2tt+tt|1tt+tt2tt+tt|  

C1|1--2--------|------------|---1--------|  
C2|------r--r--|r--r--r--r--|r-----r--r--|  
Sl|---o-----o--|---o-----o--|---o-----o--|  
Tl|------------|------------|------------|  
Bl|o-------o---|o-------o---|o-------o---|  

|1tt+tt2tt+tt|1tt+tt2tt+tt|1tt+tt2tt+tt|1 + 2 + |  
C1|------------|---1--------|------------|--------|  
C2|r--r--r--r--|r-----r--r--|r--r--r--r--|--------|  
Sl|---o-----o--|---o-----o--|---o-----o--|oooooooo|  
Tl|------------|------------|------------|--------|  
Bl|o-------o---|o-------o---|o-------o---|o---o---| |--play 2x---| 
  
|1tt+tt2tt+tt|1tt+tt2tt+tt|1tt+tt2tt+tt|  
C1|1--2--------|------------|---1--------|  
C2|------r--r--|r--r--r--r--|r-----r--r--|  
Sl|---o-----o--|---o-----o--|---o-----o--|  
Tl|------------|------------|------------|  
Bl|o-------o---|o-------o---|o-------o---|  

|1tt+tt2tt+tt|1tt+tt2tt+tt|1tt+tt2tt+tt|1 + 2 + |  
C1|------------|---1--------|------------|--------|  
C2|r--r--r--r--|r-----r--r--|r--r--r--r--|--------|  
Sl|---o-----o--|---o-----o--|---o-----o--|oooooooo|  
Tl|------------|------------|------------|--------|  
Bl|o-------o---|o-------o---|o-------o---|o---o---|  

Chorus (2): |1 + 2 + |1 + 2 + |1 + 2 + |1 + 2 + |  
C1|1-------|--------|--------|--------|  
C2|--------|--------|--------|--------|  
Sl|----o---|----o---|----o---|o---o---| <-play 2x  
Tl|----2---|2---2---|2---2---|2---2---|  
Bl|o-o-----|o-o-----|o-o---o-|--o---o-|  

|1tt+tt2tt+tt|1tt+tt2tt+tt|  
C1|------------|------------|  
C2|------------|------------|  
Sl|------o-----|------o-----| <-play 4x  
Tl|2-----2----1|2-----2-----|  
Bl|o--o--------|o--o--------|  
|1 + 2 + |1 + 2 + |1 + 2 + |1 + 2 + |  
C1|1-------|--------|--------|--------|  
C2|--------|--------|--------|--------|  
Sl|----o---|----o---|----o---|o---o---| <-play 2x  
Tl|----2---|2---2---|2---2---|2---2---|  
Bl|o-o-----|o-o-----|o-o---o-|--o---o-| |--play 6x---| End  
|1 
tt+tt2tt+tt|1tt+tt2tt+tt|1 + 2 + |1 + 2 + |  
C1|1--2--------|------------|--------|1-------|  
C2|------r--r--|r--r--r--r--|--------|--------|  
Sl|---o-----o--|---o-----o--|oooooooo|--------|  
Tl|------------|------------|--------|--------|  
Bl|o-------o---|o-------o---|o---o---|o-------|

	  

Search Paypal
auto scroll beats size up size down change color
tab show chords e-chords YouTube Clip e-chords hide all tabs e-chords go to top tab