White Reaper

Conspirator

White Reaper

chords Easy easy

by  UBIRBOMFIM

save to print version add songbook text version e-mail correct tuner
chordsukulelecavacokeyboardtabbassdrumsharmonicaflute Guitar Pro
close

there isn't a video lesson for this song

chords

Conspirator

	  		Tabbed by J 

Verse 

verse 1 

verse 2 
Conspirator 

e|-------------------------------------| 
B|-------------------------------------| 
G|-9-9-8-------------9-9-8-------------| x 4 
D|-9-9-8-9-9-9-9-9-9-9-9-8-6-6-6-6-6-6-| 
A|-7-7-6-9-9-9-9-9-9-7-7-6-6-6-6-6-6-6-| 
E|-------7-7-7-7-7-7-------4-4-4-4-4-4-| 

Bridge between verse and Chorus 
e|-----| 
B|-----| 
G|-9---| x 1 
D|-9-9-| 
A|-7-9-| 
E|---7-| 


Chorus 

e|----------------------------------| 
B|----------------------------------| 
G|-----9-9-----9-9------6-6-----6-6-| x 4 
D|-9-9-9-9-9-9-9-9--6-6-6-6-6-6-6-6-| 
A|-9-9-7-7-9-9-7-7--6-6-4-4-6-6-4-4-| 
E|-7-7-----7-7------4-4-----4-4-----| 

e|---------------------| 
B|---------------------| 
G|-9-9-9-9-9-9-9-9-9-9-| x 1 
D|-9-9-9-9-9-9-9-9-9-9-| 
A|-7-7-7-7-7-7-7-7-7-7-| 
E|---------------------| 


Outro 


begin this section after the first B in the verse  
e|------------------------------------------------------------------| 
B|------------------------------------------------------------------| 
G|--------------------------------------9-9-----9-9-----9-9-----9-9-| x 2 
D|-9-9-9-9-9-9-9-9-9-9-9-9-9-9-9-9--9-9-9-9-9-9-9-9-9-9-9-9-9-9-9-9-| 
A|-9-9-9-9-9-9-9-9-9-9-9-9-9-9-9-9--9-9-7-7-9-9-7-7-9-9-7-7-9-9-7-7-| 
E|-7-7-7-7-7-7-7-7-7-7-7-7-7-7-7-7--7-7-----7-7-----7-7-----7-7-----| 

Now we're beneath you 

e|------------------------------------------------------------------| 
B|------------------------------------------------------------------| 
G|-9-9-9-9-9-9-9-9-9-9-9-9-9-9-9-9------9-9-----9-9-----9-9-----9-9-| x 2 
D|-9-9-9-9-9-9-9-9-9-9-9-9-9-9-9-9--9-9-9-9-9-9-9-9-9-9-9-9-9-9-9-9-| 
A|-7-7-7-7-7-7-7-7-7-7-7-7-7-7-7-7--9-9-7-7-9-9-7-7-9-9-7-7-9-9-7-7-| 
E|----------------------------------7-7-----7-7-----7-7-----7-7-----| 

repeat verse chords to end the tune 
		  

Full key step upFull key step up
Half key step upHalf key step up
Half key step downHalf key step down
Full key step downFull key step down
hide glossary

See also:

chords Deep Purple - Sometimes I Feel Like Screaming chords Ira! - Flores em Você chords Ira! - Tolices chords Ira! - Eu Quero Sempre Mais chords Ira! - Envelheço na Cidade chords Ira! - Núcleo Base
e-chords

Other versions:

chords White Reaper - Conspirator
auto scroll beats size up size down change color hide chords simplify chords drawings columns
tab show chords e-chords YouTube Clip e-chords hide all tabs e-chords go to top tab

share