Uncle Tupelo

Moonshiner

Uncle Tupelo

chords Beginner beginner

by  HOUNDSTOOTH

save to print version add songbook text version e-mail correct tuner
chordsukulelecavacokeyboardtabbassdrumsharmonicaflute Guitar Pro
close

there isn't a video lesson for this song

chords

Moonshiner

Capo on 5th fret
	  		   Am/G   F/G    C/G                           G/B     G/C  G/D 

|--3------3------3----------------------3------3-------3----3--------| 
|--1------1------1----------------------1------0-----0-1--1/3--------| 
|--2------2------0----p--0---p--0---p---0------0-------0----0--------| 
|--2------3------2---0-2----0-2----0-2--2------0-------0----0--------| 
|--0------X------3----------------------3------2-------2----2--------| 
|--0------X------X----------------------X------3-------3----3--------| 


  Am/G  F/G     C/G 
I am a      moonshiner 
                   G/B  G/C  G/D 
For seventeen long years 
      Am/G     F/G     C/G 
And I spent all     my money 
               G/B  G/C  G/D 
On whiskey and beer 


   F    G/B                       C/G       F 

|--1----3-------------------------3---------1--1--0------------------| 
|--1----0---0--1--3--5--3--1--0---1----p----1--------3--1--3--1--0---| 
|--2----0-------------------------0---0-2---2------------------------| 
|--3----0-------------------------2---------3------------------------| 
|--3----2-------------------------3---------3------------------------| 
|--1----3-------------------------X---------1------------------------| 


      F          G/B 
And I go to some hollow 
    C/G       F 
And set up my still 


If whiskey don't kill me 
Lord, I don't know what will  

And I go to some barroom 
To drink with my friends 
Where the women they can't follow 
To see what I spend 
God bless them, pretty women 
I wish they was mine 
With breath as sweet as 
The dew on the vine 

Let me eat when I'm hungry 
Let me drink when I'm dry 
Two dollars when I'm hard up 
Religion when I die 
The whole world is a bottle 
And life is but a dram 
When the bottle gets empty 
Lord, it sure ain't worth a damn 



Here's the version I like to play: 

() 

    Em/D  C/D   G/D             D 

A---X-----X-----X---------X-----2---------2---------2-------------| 
E---3-----3-----3----p----3-----3----p----3----p----3-------------| 
C---0-----0-----0---0-2---0-----2---0-2---2---0-2---2-------------| 
G---2-----2-----0---------0-----0---------0---------0-------------| 
D---2-----3-----2---------2-----0---------0---------0-------------| 
A---0-----0-----3---------3-----X---------X---------X-------------| 


  Em/D  C/D     G/D 
I am a      moonshiner 
                   D 
For seventeen long years 
      Em/D     C/D     G/D 
And I spent all     my money 
               D 
On whiskey and beer 


      C          D 
And I go to some hollow 
    G         C 
And set up my still 
    
If whiskey don't kill me 
Lord, I don't know what will  
		  

Full key step upFull key step up
Half key step upHalf key step up
Half key step downHalf key step down
Full key step downFull key step down
hide glossary

See also:

chords Elvis Presley - Suspicious Minds chords Bon Jovi - Bed Of Roses chords Shinedown - Simple Man chords Elvis Presley - Can't Help Falling In Love chords Bob Dylan - Knockin On Heaven's Door chords 3 Doors Down - Here Without You
e-chords

Other versions:

chords Uncle Tupelo - Moonshiner chords Cat Power - Moonshiner chords Punch Brothers - Moonshiner chords The Stillwater Hobos - Moonshiner
auto scroll beats size up size down change color hide chords simplify chords drawings columns
tab show chords e-chords YouTube Clip e-chords hide all tabs e-chords go to top tab

share