The Wrights

Evie

The Wrights

chords Intermediate intermediate

by  KEVER18

save to print version add songbook text version e-mail correct tuner
chordsukulelecavacokeyboardtabbassdrumsharmonicaflute Guitar Pro
close

there isn't a video lesson for this song

chords

Evie

	  		Evie - The Wrights 
 
Intro: 
e ||-----------------------------------------------------------------|| 
B ||-----------------------------------------------------------------|| 
G ||--9-----------------------------(9)------------------------------|| 
D ||--9-----------------------------(9)------------------------------|| 
A ||--7-----------------------------(7)------------------------------|| 
E ||--0-----------------------------(0)------------------------------|| 
 
Riff 1: 
e ||-----------------------------------------------------------------|| 
B ||-----------------------------------------------------------------|| 
G ||-----------------------------------------------------------------|| 
D ||-----------------5------------------------------------5----------|| 
A ||-----------5--7-----7--7------------------------5--7-----7-------|| 
E ||--0--5--7------------------------------0--5--7-------------------|| 
 
Riff 2: 
      E- vie      E- vie      E- vie let your hair hang down 
e ||-----------------------------------------------------------------|| 
B ||-----------------------------------------------------------------|| 
G ||-----------------------------------------------------------------|| 
D ||-----------------------------------------5-----------------------|| 
A ||--5--7--------5--7--------5-----5-----5-----7--5-----------------|| 
E ||-----------------------------7-----7--------------7--5--3~~------|| 
 
      E- vie      E- vie      E- vie let your hair hang down 
e ||-----------------------------------------------------------------|| 
B ||-----------------------------------------------------------------|| 
G ||-----------------------------------------------------------------|| 
D ||-----------------------------------------5-----------------------|| 
A ||--5--7--------5--7--------5-----5-----5-----7--5-----------------|| 
E ||-----------------------------7-----7-----------------------------|| 
 
      E- vie      E- vie      E- vie let your hair hang down 
e ||-----------------------------------------------------------------|| 
B ||-----------------------------------------------------------------|| 
G ||----------9-----------9------------------------------------------|| 
D ||----------9-----------9------------------5-----------------------|| 
A ||--5--7----7---5--7----7---5-----5-----5-----7--5-----------------|| 
E ||-----------------------------7-----7--------------7--5--3~~------|| 
 
      E- vie      E- vie                                 Let your hair hang 
e ||-----------------------------------------------------------------|| 
B ||-----------------------------------------------------------------|| 
G ||----------9-----------9---------------7--------------------------|| 
D ||----------9-----------9---------------7--------------7-----------|| 
A ||--5--7----7---5--7----7---------------5--------------7-----------|| 
E ||-----------------------------------------------------5-----------|| 
 
      down 
e ||-----------------------------------------------------------------|| 
B ||-----------------------------------------------------------------|| 
G ||--9------------------------------9-------------------------------|| 
D ||--9------------------------------9-------------------------------|| 
A ||--7------------------------------7-------------------------------|| 
E ||--0------------------------------0-------------------------------|| 
 
 

		  

See also:

chords Guns N' Roses - Knockin' On Heaven's Door chords Guns N' Roses - Sweet Child O' Mine chords Elvis Presley - Suspicious Minds chords Elvis Presley - Amazing Grace chords Aerosmith - I Don't Want To Miss A Thing chords Bob Dylan - Like a Rolling Stone
e-chords

Other versions:

chords Johnny Mathis - EVIE chords The Wrights - Evie chords Wilson Simonal - Evie chords Jo Stafford - Evie chords Claudia - Evie
auto scroll beats size up size down change color hide chords simplify chords drawings columns
tab show chords e-chords YouTube Clip e-chords hide all tabs e-chords go to top tab

share