The Raconteurs

Sunday Driver Chords

The Raconteurs

Difficulty: nolevelnolevel

by alyslima

tuner correct add songbook print version text version save to e-mail
chordsukuleleukulelecavacokeyboardtabbassdrumsharmonicsflute Guitar Pro
close

there isn't a video lesson for this song

chords

Sunday Driver

  		
Intro 

Guitar 1 
e|------0----|------0----|------0----|------0----|| 
B|--3--------|--3--------|--3--------|--3--------|| 
G|-----------|-----------|-----------|-----------|| 
D|----0---0--|----0---0--|----0---0--|----0---0--|| 
A|-----------|-----------|-----------|-----------|| 
E|-----------|-----------|-----------|-----------|| 
Guitar 2                                          | (x4) 
e|------0----|------0----|------0----|------0----|| 
B|--7--------|--7--------|--7--------|--7--------|| 
G|----7---7--|----7---7--|----7---7--|----7---7--|| 
D|-----------|-----------|-----------|-----------|| 
A|-----------|-----------|-----------|-----------|| 
E|-----------|-----------|-----------|-----------|| 

e|-------------------|-------------------| 
B|-------------------|-------------------| 
G|--9---9------------|--7---7------------| 
D|--9---9------------|--7---7------------| (x4) 
A|--7---7--5h7-------|--5---5--3h5-------| 
E|--------------5h7--|--------------3h5--| 

************************************ 

| h   Hammer-on 

************************************ 
	  

auto scroll beats size up size down change color hide chords simplify chords drawings columns
tab show chords e-chords YouTube Clip e-chords hide all tabs e-chords go to top tab

share with facebook

Search Paypal