Phil Wickham

Great Things Chords

Phil Wickham

Difficulty: EasyEasy

by PAULLET3

tuner correct add songbook print version text version save to e-mail
chordsukuleleukulelecavacokeyboardtabbassdrumsharmonicsflute Guitar Pro
close

there isn't a video lesson for this song

chords

Great Things

  		Intro

Note: The whole thing is syncopated. Ensure you are listening to the song to get the rhythm 
E|----------------------------------------------14--| 
B|--16--16--14--16--16--14--16--16------17--17------| 
G|----------------------------------16--------------| 
D|--------------------------------------------------| 
A|--------------------------------------------------| 
E|--------------------------------------------------| 

E|--------------------------------------16p14-16p14----------| 
B|--16--16--14--16--16--14--16--16--14--------------16--14---| 
G|-----------------------------------------------------------| 
D|-----------------------------------------------------------| 
A|-----------------------------------------------------------| 
E|-----------------------------------------------------------| 

E|----------------------------------------------14--| 
B|--16--16--14--16--16--14--16--16------17--17------| 
G|----------------------------------16--------------| 
D|--------------------------------------------------| 
A|--------------------------------------------------| 
E|--------------------------------------------------| 

E|--------------------------------------16\14/19--| 
B|--16--16--14--16--16--14--16--16--14------------| 
G|------------------------------------------------| 
D|------------------------------------------------| 
A|------------------------------------------------| 
E|------------------------------------------------| 

Nothing during verse 1 

Second half of Chorus 1 
Note: This is the order of chords but not how much they are played. Reference the song 

E|------------------------------------------------------| 
B|--12--12--12--12--12--12--12--12--12--12--12--12--12--| 
G|--11--9---8---9---11--11--9---8---9---11--8---9---8---| 
D|--9-------------------9-------------------------------| 
A|------------------------------------------------------| 
E|------------------------------------------------------| 

Riff 
E|----------------------------------------------14--| 
B|--16--16--14--16--16--14--16--16------17--17------| 
G|----------------------------------16--------------| 
D|--------------------------------------------------| 
A|--------------------------------------------------| 
E|--------------------------------------------------| 

E|--------------------------------------16\14/19--| 
B|--16--16--14--16--16--14--16--16--14------------| 
G|------------------------------------------------| 
D|------------------------------------------------| 
A|------------------------------------------------| 
E|------------------------------------------------| 

verse 2  
(Has some weird palm muted stuff based on the intro at a lower octave. Unable to tab at this time) 

tabchorus
Chorus 2 Note: This is the order of chords but not how much they are played. Reference the song E|--------------------------------| B|--7--5--4--5--7--5--4--5--7--7--| G|--4--4--4--4--4--4--4--4--4--6--| D|--------------------------------| A|--------------------------------| E|--------------------------------| E|--------------------------------| B|--7--5--4--5--7--5--4--5--7--7--| G|--4--4--4--4--4--4--4--4--4--6--| D|--------------------------------| A|--------------------------------| E|--------------------------------|
tab
Interlude E|------------------------------------------------------------| B|---------12---------12---------12---------12---------12-----| G|--9--11------9--11------9--11------9--11------9--11---------| D|---------------------------------------------------------9--| A|------------------------------------------------------------| E|------------------------------------------------------------| Bridge E|------------------------------------------------------------------| B|--12------------------------------12--------------12--------------| G|------11--13--------------11----------11--13----------11--13------| D|--------------13--11--13------13--------------13--------------13--| A|------------------------------------------------------------------| E|------------------------------------------------------------------| E|------------------------------------------------------------------| B|--12------------------------------12------------------------------| G|------11--13--------------11----------11--13--------------11------| D|--------------13--11--13------11--------------13--11--13------11--| A|------------------------------------------------------------------| E|------------------------------------------------------------------| E|------------------------------------------------------------------| B|--12------------------------------12--------------12--------------| G|------11--13--------------11----------11--13----------11--13------| D|--------------13--11--13------11--------------13--------------13--| A|------------------------------------------------------------------| E|------------------------------------------------------------------| E|--11------------------------------11------------------------------| B|------12--14--------------12----------12--14--------------12------| G|--------------13--11--13------11--------------13--11--13------11--| D|------------------------------------------------------------------| A|------------------------------------------------------------------| E|------------------------------------------------------------------| E|--11------------------------------------------------------------------| B|------12--14--------------12------14------14------14------14------12--| G|--------------13--11--13------11------11------11------11------11------| D|----------------------------------------------------------------------| A|----------------------------------------------------------------------| E|----------------------------------------------------------------------|
tabchorus
Chorus 3 Only a swell on B during the down part E|--------------------------------| B|--7--5--4--5--7--5--4--5--7--7--| G|--4--4--4--4--4--4--4--4--4--6--| D|--------------------------------| A|--------------------------------| E|--------------------------------| E|--------------------------------| B|--7--5--4--5--7--5--4--5--7--7--| G|--4--4--4--4--4--4--4--4--4--6--| D|--------------------------------| A|--------------------------------| E|--------------------------------| E|-------------------------------------------| B|--11--12--11---------12---------12---------| G|--11--11--11--9--11------9--11------9--11--| D|--9---9---9--------------------------------| A|-------------------------------------------| E|-------------------------------------------|
tab
Outro E|----------------------------------------------14--| B|--16--16--14--16--16--14--16--16------17--17------| G|----------------------------------16--------------| D|--------------------------------------------------| A|--------------------------------------------------| E|--------------------------------------------------| E|--------------------------------------16p14-16p14----------| B|--16--16--14--16--16--14--16--16--14--------------16--14---| G|-----------------------------------------------------------| D|-----------------------------------------------------------| A|-----------------------------------------------------------| E|-----------------------------------------------------------| E|----------------------------------------------14--| B|--16--16--14--16--16--14--16--16------17--17------| G|----------------------------------16--------------| D|--------------------------------------------------| A|--------------------------------------------------| E|--------------------------------------------------| E|--------------------------------------16\14/19--| B|--16--16--14--16--16--14--16--16--14------------| G|------------------------------------------------| D|------------------------------------------------| A|------------------------------------------------| E|------------------------------------------------| ************************************ | p Pull-off | / Slide up | \ Slide down ************************************

Full key step upFull key step up
Half key step upHalf key step up
Half key step downHalf key step down
Full key step downFull key step down
auto scroll beats size up size down change color hide chords simplify chords drawings columns
tab show chords e-chords YouTube Clip e-chords hide all tabs e-chords go to top tab

share with facebook

Search Paypal