Pablo Ilabaca

Mi Viejo

Pablo Ilabaca

chords Easy easy

by  GUSTSILVA

save to print version add songbook text version e-mail correct tuner
chordsukulelecavacokeyboardtabbassdrumsharmonicaflute Guitar Pro
close

there isn't a video lesson for this song

chords

Mi Viejo

	  		Intro: 
e|-----------------| 
B|-----------------| 
G|-----------------| 
D|-----x-----------| x2 
A|-----x---1---3~--| 
E|-3---x-3---------| 


Verso/Instrumental: 

   D7              Cm               A#               D7 
e|-----------------|-----------------|-----------------|-----------------| 
B|-----7-------7---|-----4-------4---|-----3-----3-----|-----7-----------| 
G|-----5-------5---|-----5-------5---|-----3-----3-----|-----5-----------| 
D|-----7-------7---|-----5-------5---|-----3-----3-----|-----7-----------| 
A|-5-----5-----5-4-|-3-----3-----3---|-1-----1---1-3-4-|-5-----5---------| 
E|---------5-------|---------3-------|---------1-------|---------5---6---| 


   Gm             D7               Gm          F#  F 
e|-----------------|-----------------|-----------------|-----------------| 
B|-----3-----------|-----7-----------|-----3-----3-3-2-|-1---------------| 
G|-----3-----------|-----5-----------|-----3-----3-3-3-|-2---------------| 
D|-----5-----------|-----7-----------|-----5-----5-5-4-|-3---------------| 
A|-----------------|-5-----5---------|-----------5-5-4-|-3---------------| 
E|-3-----3-5---6---|---------5---6---|-3-----3-3-3-3-2-|-1---------------| 



                       D7 
Es un buen tipo mi viejo 

Cm                    A# 
Que anda solo y esperando 

D7                    Gm 
Tiene la tristeza larga 

D7                    Gm  Gm-F#-F 
De tanto venir andando 


                       D7 
Yo lo miro de desde lejos 

Cm                    A# 
Pero somos tan distintos 

D7                    Gm  Gm-F# 
Es que creció con el siglo 

F                     A# 
Con tranvía y vino tinto 


D7                    Gm 
Viejo, mi querido viejo 

F                     A# 
Ahora ya caminas lento 

D7                    Gm 
Como perdonando el viento 


D7                    Gm 
Yo soy tu sangre, mi viejo 

D7                    Gm   Gm-F#-F 
Soy tu silencio y tu tiempo 


Instrumental 


                       D7 
Él tiene los ojos buenos 

Cm                    A# 
Y una figura pesada 

D7                    Gm 
La edad se le vino encima 

D7                    Gm  Gm-F#-F 
Sin carnaval ni comparsa 


                       D7 
Yo tengo los años nuevos 

Cm                    A# 
Mi padre los años viejos 

D7                    Gm  Gm-F# 
El dolor lo lleva dentro 

F                     A# 
Y tiene historia sin tiempo 


D7                    Gm 
Viejo, mi querido viejo 

F                     A# 
Ahora ya caminas lento 

D7                    Gm 
Como perdonando el viento 


D7                    Gm 
Yo soy tu sangre, mi viejo 

D7                    Gm 
Soy tu silencio y tu tiempo yo.. 

D7                    Gm 
Yo soy tu sangre, mi viejo 


Se repite hasta terminar: RE7 - SOLm 
		  

Full key step upFull key step up
Half key step upHalf key step up
Half key step downHalf key step down
Full key step downFull key step down
auto scroll beats size up size down change color hide chords simplify chords drawings columns
tab show chords e-chords YouTube Clip e-chords hide all tabs e-chords go to top tab

share