Natiruts

Meu Reggae é Roots

Natiruts

chords Beginner beginner

save to print version add songbook text version e-mail correct tuner
chordsukulelecavacokeyboardtabbassdrumsharmonicaflute Guitar Pro
close

there isn't a video lesson for this song

chords

Meu Reggae é Roots

	  		Intro: (F# G#m C#) 
 
Solo da Intro (versão para guitarra) 

E|--------------------------------------------------------- 
B|----16br-14-11-14----------------16-16-14~--------------- 
G|-11---------------13br-11-8~--8/10----------------------- 
D|--------------------------------------------------------- 
A|--------------------------------------------------------- 
E|--------------------------------------------------------- 

E|--------------------------------------------------------- 
B|----16br-14-11-14---------------------------------------- 
G|-11----------------13br-11-13~---13-11-10~~-10-11~------- 
D|--------------------------------------------------------- 
A|--------------------------------------------------------- 
E|--------------------------------------------------------- 

Solo da Intro (versão para violão) 

E|----11br-9-6-9---------------11b-11b-9~------------------ 
B|--7------------9br-7------------------------------------- 
G|----------------------8~--8/10--------------------------- 
D|--------------------------------------------------------- 
A|--------------------------------------------------------- 
E|--------------------------------------------------------- 

E|----11br-9-6-9------------------------------------------- 
B|--7------------9br-7-9~---9-7-6~~-6-7~------------------- 
G|--------------------------------------------------------- 
D|--------------------------------------------------------- 
A|--------------------------------------------------------- 
E|--------------------------------------------------------- 


F#                     G#m          C# 
  Meu reggae é "roots", palavras também 
D#m                        C# 
  Mas o meu coração é brasileiro 
B7M                           A#m 
  Deixa eu aprender o que é o amor 
Por mais difícil que isso seja 
B7M                     A#m 
  Deixa que a chuva vem lavar 
           D#m 
A mente de alguém que deseja 
  G#m 
Sair cantando por aí 
   C# 
Tentando sempre imaginar 
   A#m 
Frases estranhas para dizer 
          D#7 
Mensagens simples de entender 
   G#m 
Cantando eu mando um alô 
  C# 
Para você que acreditou 
    A#m                           D#7 
Que podia ser mais feliz, vendo o outro ser feliz 
   G#m                         C#             F# 
E abriu seu coração e o seu sorriso todo para ela 
Solo: (F# G#m C#) 
Repete a música toda 
Solo da intro 


		  

Full key step upFull key step up
Half key step upHalf key step up
Half key step downHalf key step down
Full key step downFull key step down
auto scroll beats size up size down change color hide chords simplify chords drawings columns
tab show chords e-chords YouTube Clip e-chords hide all tabs e-chords go to top tab

share