Mischief Brew

Boycott Me

Mischief Brew

chords Easy easy

by  AMAN_CLAUDINO

save to print version add songbook text version e-mail correct tuner
chordsukulelecavacokeyboardtabbassdrumsharmonicaflute Guitar Pro
close

there isn't a video lesson for this song

chords

Boycott Me

Capo on 2nd fret
	  		
 


Intro 

e|-----------------------------------7-----------------7-10-7----------------------| 
B|-----------7-10-10-10-10-7-8-8-8-8---10-10-10-10-7-8--------10-10-10-7-----7-----| 
G|-5-7-7-7-7-------------------------------------------------------------9-9---9-7-|  (2x) 
D|---------------------------------------------------------------------------------| 
A|---------------------------------------------------------------------------------| 
E|---------------------------------------------------------------------------------| 

e|----------------------------------------------------------------------| 
B|-------------------------------------------8-7------------------------| 
G|-5-7-7-7-7-9-7-7-5-7-7-7-7-9-7-7-5-7-7-7-7-7-7-7-7-5-7-7-7-7-7-7-7-7--| 
D|-0-0-0-0-0-0-0-0-0-0-0-0-0-0-0-0-0-0-0-0-0-0-0-0-0-0-0-0-0-0-0-0-0-0--| 
A|----------------------------------------------------------------------| 
E|----------------------------------------------------------------------| 


verse 1 

D 
Listens to the fifens, they're marchin through the square,  
B                             G 
stencil flags of insurrection dancin' through the air.  
D                                G          D 
Read the rants of a Thomas Paine, of modern day.  
G             D               A            D 
I have felt a spirit that has not yet gone away, hey!  
                                A                   D 
Boycott me and boycott this and mute your childrens mouths  
          G                  D          A               D 
when they sing along to this very song, spread word all around, 


tabchorus
G D A B Hey FOB, boycott me for i am standing up, G D A D i'd rather taste a rebels lure than drink blood from your cup, G D A i'd rather taste a rebels lure than drink blood from your cup!
tab
hide this tabHide
tab
A D e|---2-2-2-2-2-2-2-2-2-2-2-2-3-3-3-3-2-2-2-2-3-3-3-3-2-2-2-2-0-0-0-0-0-| B|-2-3-3-3-3-3-3-3-3-3-3-3-3-3-3-3-3-3-3-3-3-3-3-3-3-3-3-3-3-3-3-3-3-3-| G|-2-2-2-2-2-2-2-2-2-2-2-2-2-2-2-2-2-2-2-2-2-2-2-2-2-2-2-2-2-2-2-2-2-2-| D|-2-0-0-0-0-0-0-0-0-0-0-0-0-0-0-0-0-0-0-0-0-0-0-0-0-0-0-0-0-0-0-0-0-0-| A|-0-------------------------------------------------------------------| E|---------------------------------------------------------------------|
tab
Bridge
hide this tabHide
tab
B D e|------------------2-2-2-2-2-2-2-2--| B|---3---3---3---3--3-3-3-3-3-3-3-3--| G|---4---4---4---4--2-2-2-2-2-2-2-2--| D|---4---4---4---4--0-0-0-0-0-0-0-0--| A|-2-------2-------------------------| E|-----2-------2---------------------|(3x) G D A D e|----------------------------------| B|-3-3-3p2p0------------------------| G|-----------2-2-4p2p0--------------| D|---------------------2-2-2h4p2-0--| A|----------------------------------| E|----------------------------------|(2x)
tab
************************************ | h Hammer-on | p Pull-off ************************************

Full key step upFull key step up
Half key step upHalf key step up
Half key step downHalf key step down
Full key step downFull key step down
hide glossary

See also:

chords Green Day - She chords Goo Goo Dolls - Iris acoustic tab chords Ramones - Pet Sematary chords Green Day - When I Come Around chords Green Day - Good riddance (time of your life) chords Green Day - Welcome To Paradise
e-chords

Other versions:

chords Mischief Brew - Boycott Me
auto scroll beats size up size down change color hide chords simplify chords drawings columns
tab show chords e-chords YouTube Clip e-chords hide all tabs e-chords go to top tab

share