Misc Your Songs

home > Misc Your Songs

Guitarlegend - Uplifting Chords

Misc Your Songs

Difficulty: nolevelnolevel

by andrsouza

tuner correct add songbook print version text version save to e-mail
chordsukulelecavacokeyboardtabbassdrumsharmonicsflute Guitar Pro
chords

Guitarlegend - Uplifting

  		
Part 1 
Guitar 1 
D|---------------------------------------------------------------------------| 
A|---------------------------------------------------------------------------| 
F|---------4--------------4----------------0------------------4--------------| x2 
C|-----5-------------4---------------5----------------4----------------------| 
G|--7-----------5---------------3--------------5-----------------------------| 
C|---------------------------------------------------------------------------| 

Guitar 3 (background guitar) 
Harmonics: 
D|---------------------------------------------------------------------------| 
A|---------------------------------------------------------------------------| 
F|--5-----------7---------------5--------------7-----------------------------| x2 
C|---------------------------------------------------------------------------| 
G|---------------------------------------------------------------------------| 
C|---------------------------------------------------------------------------| 

Part 2 
Guitar 1 
D|---------------------------------------------------------------------------| 
A|---------------------------------------------------------------------------| 
F|----------4----------4----------0---------4---4-5-4------------------------| x4 
C|------5-----------4-----------5--------4-------------5-7-5-----------------| 
G|--7-----------5-----------3---------5--------------------------------------| 
C|---------------------------------------------------------------------------| 

Guitar 2 
D|--------------------------------------------2-2---2-3-2--------------------| 
A|--------------------------------------------3-3---------3-5-3--------------| 
F|------------------------------5-5--5-5-5-5--2-2----------------------------| x4 
C|--2-2--2-2-2-2--0-0--0-0-0-0--5-5--5-5-5-5--0-0----------------------------| 
G|--2-2--2-2-2-2--0-0--0-0-0-0--3-3--3-3-3-3---------------------------------| 
C|--2-2--2-2-2-2--0-0--0-0-0-0-----------------------------------------------| 

Guitar 3 
(played on chords) 
D|---------------------------------------------------------------------------| 
A|---------------------------------------------------------------------------| 
F|---------------------------------------------------------------------------|x4 
C|---------------------------------------------------------------------------| 
G|---7-9-10-12-14-14-12-15-14------------------------------------------------| 
C|---------------------------------------------------------------------------| 

Part 3 
Guitar 2 
D|----------------------------------------------------------------------------------| 
A|----------------------------------------------------------------------------------| 
F|------5---2--5-5------------------------------------------------------------------| 
C|--2---5---2--5-5------------------------------------------------------------------| 
G|--2---3---0--3-2------------------------------------------------------------------| 
C|--2-------------------------------------------------------------------------------| 

Part 4 
Guitar 2 
D|--------------------------------------------2-2---2-3-2--------------------| 
A|--------------------------------------------3-3---------3-5-3--------------| 
F|------------------------------5-5--5-5-5-5--2-2----------------------------| x6 
C|--2-2--2-2-2-2--0-0--0-0-0-0--5-5--5-5-5-5--0-0----------------------------| 
G|--2-2--2-2-2-2--0-0--0-0-0-0--3-3--3-3-3-3---------------------------------| 
C|--2-2--2-2-2-2--0-0--0-0-0-0-----------------------------------------------| 

Part 5 
Guitar 1 
D|---------------------------------------------------------------------------| 
A|---------------------------------------------------------------------------| 
F|---------4--------------4----------------0------------------4--------------| x4 
C|-----5-------------4---------------5----------------4----------------------| 
G|--7-----------5---------------3--------------5-----------------------------| 
C|---------------------------------------------------------------------------| 


Part 6 
D|---------------------------------------------------------------------------| 
A|---------------------------------------------------------------------------| 
F|----------------5-5--5-5-5-5---4-4--4-4-4-4---3-3--3-3-3-3-----------------| 
C|--2-2--2-2-2-2--5-5--5-5-5-5---4-4--4-4-4-4---3-3--3-3-3-3-----------------| 
G|--2-2--2-2-2-2--3-3--3-3-3-3---2-2--2-2-2-2---1-1--1-1-1-1-----------------| 
C|--2-2--2-2-2-2-------------------------------------------------------------| 
	  

Search Paypal
auto scroll beats size up size down change color hide chords simplify chords drawings columns
tab show chords e-chords YouTube Clip e-chords hide all tabs e-chords go to top tab