MC Fioti

México

MC Fioti

chords

by  GUSTSILVA

save to print version add songbook text version e-mail correct tuner
chordsukulelecavacokeyboardtabbassdrumsharmonicaflute Guitar Pro
close

there isn't a video lesson for this song

chords

México

	  		E|----------------------------------------------| 
A|----------------------------------------------| 
D|----------------------------------------------| 
G|-9------------8-----------9------------8------| 
B|--12------------------------12----------------| 
E|---12-14-15-----11-11--------12-14-15----19---| 

Solo 

E|---------------------------------------------------| 
A|---------------------------------------------------| 
D|---------------------------------------------------| 
G|----9--------9-------8-------8---------------------| 
B|------12-12-----12-----12-12---12------------------| 
E|---------------------------------------------------| 
		  

auto scroll beats size up size down change color hide chords simplify chords drawings columns
tab show chords e-chords YouTube Clip e-chords hide all tabs e-chords go to top tab

share