Lit

home > Lit

Miserable Chords

Lit

Difficulty: EasyEasy

tuner correct add songbook print version text version save to e-mail
chordsukulelecavacokeyboardtabbassdrummharmonicsflute Guitar Pro
chords

Miserable

  		 
intro 
(D5   A5   E5   F#53x  D5         
                                    
 
You make me come 
You make me comepletely 
You make me comepletely miserable 
 
(A5   F#5) 
 
Stuck to a chair watchin' this story about me 
Everything goes by so fast making my head spin 
Used up all my friends but who needs then when you mean everuthing 
 
D5           A5          C#5       D5   :                  
  I love the things that we should fear :  
                                        : 
D5        A5        C#5   D5            : 
  I'm not afraid of being here          :parte 1 
                                        : 
D5            A5                        : 
  So much the same                      : 
              F#5                       : 
  It makes me helpless alone            : 
 
 
( A5      F#5 ) 
 
 
Nothing to share why should I care if you're me 
Give up all my plams but who needs then when you mean everythuing 
 
repete parte 1: 
 
solo( A        F# ) 
 
e|--------------------12--12--10--17--16---12--12--10--17--16/----------------- 
B|--14--14--12--14------------------------------------------------------------- 
G|----------------------------------------------------------------------------- 
D|----------------------------------------------------------------------------- 
A|----------------------------------------------------------------------------- 
E|----------------------------------------------------------------------------- 
 
e|----------------------------12--12--10--17--16---12--12--10--17--19---------- 
B|--14--14--12--14--12--14----------------------------------------------------- 
G|----------------------------------------------------------------------------- 
D|----------------------------------------------------------------------------- 
A|----------------------------------------------------------------------------- 
E|----------------------------------------------------------------------------- 
 
 
repete parte 1: 
 
repete refrão: 
 
 
D5    A5  E5   F#5      D5    
  Yeat,yeat,you make me come 
D5    A5   E5  F#5      D5 
  Yeat,yeat,you make me comeplety 
D5    A5   E5  F#5      D5 
  Yeat,yeat,you make me come 
D5    A5   E5  F#5      D5 
  Yeat,yeat,you make me comeplety 
D5    A5   E5  F#5      D5        A5        
  Yeat,yeat,you make me comeplety miserable  
 
 
_______________________________________________________ 
Contribuição: Diego Henrique de Souza([email protected]) 
	  

Full key step upFull key step up
Half key step upHalf key step up
Half key step downHalf key step down
Full key step downFull key step down
Search Paypal
auto scroll beats size up size down change color hide chords simplify chords drawings columns
tab show chords e-chords YouTube Clip e-chords hide all tabs e-chords go to top tab