Kygo

home > Kygo

Id Chords

Kygo

Difficulty: nolevelnolevel

by abelamin

tuner correct add songbook print version text version save to e-mail
chordsukulelecavacokeyboardtabbassdrumsharmonicsflute Guitar Pro
chords

Id

Key:  Ebm More
Id Key A#mA#m
Id Key BmBm
Id Key CmCm
Id Key C#mC#m(one step down)
Id Key DmDm(half step down)
Id Key EbmEbm(original key)
Id Key EmEm(half step up)
Id Key FmFm(one step up)
Id Key F#mF#m
Id Key GmGm
Id Key G#mG#m
Id Key AmAm
  		
e|---------------------------------------------------------------------------| 
B|-----11-8--------------------------------------8---------------------------| 
G|---8------10-8--8----8-8-----8----8-10--8-10-8---10------------------------| 
D|------------------10------10---10------------------------------------------| 
A|---------------------------------------------------------------------------| 
E|---------------------------------------------------------------------------| 

e|---------------------------------------------------------------------------| 
B|---------------------------------------------------------------------------| 
G|---8-8-------------8--8-8-------------8------------------------------------| 
D|-------10--10-8-10--------10--10-8-10--------------------------------------| 
A|---------------------------------------------------------------------------| 
E|---------------------------------------------------------------------------| 

e|---------------------------------------------------------------------------| 
B|----11-8-----------------------8-------------------------------------------| 
G|--8------10-8--8----8-10--8-10---10-8--8-5---5-8---------------------------| 
D|-----------------10------------------------8-------------------------------| 
A|---------------------------------------------------------------------------| 
E|---------------------------------------------------------------------------| 

e|---------------------------------------------------------------------------| 
B|---------------------------------------------------------------------------| 
G|---8-8-------------8--8-8-------------8------------------------------------| 
D|-------10--10-8-10--------10--10-8-10--------------------------------------| 
A|---------------------------------------------------------------------------| 
E|---------------------------------------------------------------------------| 
	  

Search Paypal
auto scroll beats size up size down change color hide chords simplify chords drawings columns
tab show chords e-chords YouTube Clip e-chords hide all tabs e-chords go to top tab