Ira!

Núcleo Base (ver. 2)

Ira!

chords Beginner beginner

save to print version add songbook text version e-mail correct tuner
chordsukulelecavacokeyboardtabbassdrumsharmonicaflute Guitar Pro
close

there isn't a video lesson for this song

chords

Núcleo Base (ver. 2)

	  		 
(acústica) 
 
Este solo você toca antes da introdução: (pré-intro) 
 
violão 1 
E|-----------------------------------------|\ 
B|----------------5-5-----7-7-7------------| \ 
G|----9-9---9-----6-6-----8-8-8---------9--|  \ 
D|-/9-9-9---9-----7-7-----9-9-9------/9-9--|  / Repete mais uma vez 
A|-/7-7-7---7-----7-7-----9-9-9------/7-7--| / 
E|------------5-5-5-5--/7-7-7-7---7\-------|/ 
 
 
Intro:  E  A  B7  (2x) 
 
 
violões: afinados em E 
      >>   violão 1  toca o solo da intro durante as partes E A B7 de toda a música,  
substituindo os acordes, e no refrão, toca os acordes normalmente. 
      >>   violão 2 faz a base 
 
 
Durante a intro, o violão 1 toca isso: 
 
(riff 1) 
E|-0-2-0-4-2-4-4---2-4-/5-4-2-0-2-0--|\        
B|-----------------------------------| \ 
G|-----------------------------------|  \ 
D|-----------------------------------|  /Tudo isso duas vezes 
A|-----------------------------------| / 
E|-----------------------------------|/ 
 
E                  A             B7             E   A B7 
Meu amor eu sinto muito, muito, muito, mais vou indo 
E                    A         B7         E  A B7 
Pois é tarde, muito tarde e preciso ir embora 
E                 A            B7           E   A B7 
Sinto muito meu amor mas acho que já vou andando 
 
****nessa parte o violão 1 toca: 
 
        E             A            B7 
E|--------------|------------|-------------------| 
B|---0---0--0---|-----0------|------0------------| 
G|--------------|---2--------|----2---------9-9--| 
D|-0---0--0---0-|------------|-----------/9-9-9--| 
A|--------------|-2----------|-0---------/7-7-7--| 
E|--------------|------------|-------------------| 
 
 
E              A         B7        E   A B7 
Amanhã acordo cedo e preciso ir embora 
E                A           B7           E   A B7 
Eu queria ter você mas acho que já vou andando 
E               A               B7           E      A      B7 
Outro dia pode ser mas não vai dar pra ser agora...la lala la lalala 
 
E    Ebm       A        B          A 
Eu tentei fugir não queria me alistar 
    G#m    F#m      B            E 
Eu quero lutar mas não com essa farda 
    Ebm        A        B          A 
Eu tentei fugir não queria me alistar 
    G#m      F#m    B7           (E A B7)  ou (riff 1) 
Eu quero lutar mas não com essa farda 
 
E                  A            B7           E   A B7 
E já esta ficando tarde e eu estou muito cansado 
E                      A        B7          E       A B7 
Minha mente está tão cheia e estou me transbordando 
E                   A           B7       E     A B7 
Você pensa que sou louco mas estou só delirando 
E                   A          B7          E     A       B7 
Você pensa que sou tolo mas estou só te olhando la lala  la lalala 
 
E    Ebm       A        B          A 
Eu tentei fugir não queria me alistar 
    G#m    F#m      B            E 
Eu quero lutar mas não com essa farda 
    Ebm        A        B          A 
Eu tentei fugir não queria me alistar 
    G#m      F#m    B7           (E A B7) 
Eu quero lutar mas não com essa farda. 
(E G#7)  (solo 1)                              (solo 1) 
Mas não com essa farda. Mas não com essa farda 
(E G#7)  (solo 1)                              (solo 1) 
Mas não com essa farda. Mas não com essa farda 
 
***os dois violões terminam em: 
     A  G#m F#m E 
Mas não ... 
 
solos: 
 
solo 1 
 
E|-7-5-4-5-7----7-5-4-5-4----7-5-4-5-7---| 
B|---------------------------------------| 
G|---------------------------------------| 
D|---------------------------------------| 
A|---------------------------------------| 
E|---------------------------------------| 
 
solo 2 
 
 
E|-/5-5-4-4-5-/5-5-4-4---------------------------| 
B|----------------------/5-5-4-4-5-/5-5-4-4------| 
G|-----------------------------------------------| 
D|-----------------------------------------------| 
A|-----------------------------------------------| 
E|-----------------------------------------------| 
 
_______________________________________________________ 
Contribuição: Ricardo Carvalho([email protected]) 

		  

Full key step upFull key step up
Half key step upHalf key step up
Half key step downHalf key step down
Full key step downFull key step down
hide glossary

See also:

chords Jota Quest - Além do horizonte chords Legião Urbana - Eduardo E Mônica chords Raul Seixas - Medo da Chuva chords Legião Urbana - Hoje A Noite Não Tem Luar chords Raul Seixas - Tente outra vez chords Paralamas do Sucesso - Lanterna dos Afogados
e-chords

Other versions:

chords Ira! - Núcleo Base chords Ira! - Núcleo Base (ver. 2)
auto scroll beats size up size down change color hide chords simplify chords drawings columns
tab show chords e-chords YouTube Clip e-chords hide all tabs e-chords go to top tab

share